Hellogoodbye - Dear Jamie Sincerely Me Acoustic Text Guitar Tab

Learn the song with the online tablature player
                         Dear Jamie... Sincerely Me - Hellogoodbye

I figured this out on my acoustic and I think it sounds great.

It's slightly complicated and it's meant to be primarily finger-picked. Since
the original song consists of many layered instruments, it's unavoidable that
the transition to a single acoustic guitar would be difficult at times.

Intro
e|-----------------------------------------|
B|-----0---------0---------0---------0-----|
G|---2---2-----2---2-----2---2-----2---2---|
D|2---------2---------2---------2----------| x2
A|x---------x---------0---------2----------|
E|0---------4---------x---------x----------|

Verse 1
e|-----------------------------------------|
B|-----0---------0---------0---------0-----|
G|---2---2-----2---2-----2---2-----2---2---|
D|2---------2---------2---------2----------| x2
A|x---------x---------0---------2----------|
E|0---------4---------x---------x----------|

e|-----------------------------------------------------------|
B|--------0---------------------------0----------------------|
G|--1h2-1-----2p1---1h2p1-------1h2-1-----2p1---1h2p1--------|
D|------------------------2~---------------------------------|
A|4---------4-------------0~--4---------4-------------2~-----|
E|----------------4---------------------------4-------0~-----|

Post Verse- (Or just repeat the intro if this is too hard)
e|-----0--------------------------------------------------------|
B|----------4----0---------------------------0------------------|
G|--2----x----x--2-x----x----4--4-2-1h2--1-x---x--4-x--1-x------|
D|--2----x----x----x--2-x-2-----2-2-2----2-x---x--4-x--2-x--2---| x2
A|--2----x----x----x--0-x-0--2--2-2-2----x-x-2-x--x-x--x-x--0---|
E|0-0--0----4----4-----------------------0---0----4----4--------|

Verse 2
e|----------------------------------------|
B|-----0---------0---------0---------0----|
G|---2---2-----2---2-----2---2-----2---2--|
D|2---------2---------2---------2---------| x2
A|x---------x---------0---------2---------|
E|0---------4---------x---------x---------|

e|-----------------------------------------------------------|
B|--------0---------------------------0----------------------|
G|--1h2-1-----2p1---1h2p1-------1h2-1-----2p1---1h2p1--------|
D|------------------------2~---------------------------------|
A|4---------4-------------0~--4---------4-------------2~-----|
E|----------------4---------------------------4-------0~-----|

Chorus
e|0-----------------------------|
B|0-------0-------0-------1-----|
G|4-------4-------2-------2-----|
D|2-x8----2-x8----2-x8----2-x8--| x2
A|2-------4-------0-------0-----|
E|0-----------------------------|

| PM palm mute
| /  slide up
| \  slide down
| h  hammer-on
| p  pull-off
| ~  let ring
| b  bend
| *  substitute
| x  mute note
| +  harmonic