Hellogoodbye - Oh It Is Love Text Guitar Tab

Learn song with the online tabulature player
-------------------------------------------------------------------------------
                             Oh It Is Love - Hellogoodbye
-------------------------------------------------------------------------------
Tabbed by: Goobrocker
Email: jtitular@gmail.com

Tuning:Standard (E A D G B e)

So I was watching some of forest play on youtube and this was what I came up with...the 
part after the intro isn’t right, but I like how this sounds so yeah, hope it works out! 
to the song to find the timing, it’s not that hard…

p.s. this be thy first tab so don’t be crazy harsh if it isn’t 100%
drop n e suggestions @ my email, feedback welcome! Thanks-

Intro/chorus (oh, it is love…)
e|-3-----5-----7-----8-----|
B|-3-----5-----7-----8-----|
G|-4-----5-----7-----8-----|
D|-5-----7-----9-----10----|
A|-x-----x-----x-----x-----|
E|-x-----x-----x-----x-----|


Pre-Verse (this is what forest plays live, for album version, just play the verse 2x)
e|-------------/10--9---8----------------------------------|
B|-------3-5-3-/10--9---8---10p8--------8-10/11\10-8-------|
G|-----4-------/11--10--9-------------9--------------9-----|
D|-3/5---------/12--11--10-------7/10----------------------|
A|--------------x---x---x----------------------------------|
E|--------------x---x---x----------------------------------|


1st Verse (this part may be a lil shakey…)
e|-3--x--3------/-10-9--8--x--5--8----|
B|-3--x--3-5p3--/-10-9--8--x--5--8----|
G|-4--x--4------/-11-10-9--x--5--8—---|
D|-5--x--4------/-12-11-10-x--7--10---|
A|-x--x--x------/-x--x--x--x--x--x----|
E|-x--x--x------/-x--x--x--x--x--x----|

2nd Verse
e|-----------/10--9---8--x--5--x--8--|
B|-----3-5-3-/10--9---8--x--5—-x—-8--|
G|---4-------/11--10--9--x--5--x--8--|
D|-5---------/12--11--10-x--7--x--10-|
A|------------x---x---x--x--x--x--x--|
E|------------x---x---x--x--x--x--x--|


2nd part to verse
e|------10—-----8--|
B|------10—-----8--|
G|------11—-----9--|
D|--12--12—-10--10-|
A|------x-------x--|
E|------x-------x--|

Bridge (your heart may long…)
e|-10--8---11--10----|
B|-10--8---11--10----|
G|-11--9---12--11----|
D|-12--10--13--12—---|
A|-x---x---x---x-----|
E|-x---x---x---x-----|

Bridge cont. (to ease every fear..)
e|----------------------------------------------------------------|
B|----12-------12-------12----12-------12-------12--------12—-12~-|
G|-------12-------12-------------12-------12--------------12-—12~-|
D|-13-------13-------13----12-------12-------12-----(x3)—-13-—13~-|
A|----------------------------------------------------------------|
E|----------------------------------------------------------------|

Bridge cont.
e|-------3------5-------7--------8--------------------------------|
B|-----3------5-------7--------8----------------------------------|
G|---4------5-------7--------8------------------------------------| <-this line 2x
D|-5------7-------9-------10--------------------------------------|
A|----------------------------------------------------------------|
E|----------------------------------------------------------------|


Order of the whole song…

Intro (x2)
Pre verse (x2) <-sub verse 2x if playing to album
Verse 1 (x4)
2nd part to verse (x2)
Chorus (x2)
Pre Verse (x2)
Verse 2 (x4)
2nd part to verse (x2)
Chorus (x2)
Bridge
Chorus (x4)


| /  slide up
| \  slide down
| h  hammer-on
| p  pull-off
| ~  vibrato
| +  harmonic
| x  Mute note
===============================================================================