Hepburn - Bugs Text Guitar Tab

Learn song with the online tabulature player
Hepburn
Bugs
Tabbed by: paramore_fans@yahoo.com
You know that Sarah Davies, the band's bassist really kickass. In this planet, Only a
female bassist kickass. Too bad, only a few knows Hepburn, a true and non manufactured all
pop rock band because thy write their own songs and performs really live!!! I mean 
lip synch. If you want this song, just email me then I will send you its mp3 file. You
search their vids I QUIT and DEEP DEEP DOWN (live) at Youtube.com and you will notice 
Sarah's bass skills there. In the song COLD WORLD, she can also do slap, pop and tap 
You can also search this band on wikipedia.org.

Bass Tab

Tuning: Standard EADG

Intro: will enter at 0:09


G|----------|-----------------------------------|
D|----------|-----------------------------------|
A|---8/10\8-|-8--8-8---------10--10-10----------|
E|-8--------|----------6-6---------------8-8----|
                           x2 this bar

Verse 1:
G|---------------------------------|
D|---------------------------------|
A|-8--8-8---------10--10-10--------| (x4)
E|----------6-6---------------8-8--|


Refrain 1:
G|-------------------------------------|
D|-------------------3---3-----3-3---3-|
A|-3/5-5-5-5\3-3-3-3---------3---------| (x3)
E|---------------------1-----------1---|

Like bugs on the windshield...
G|-------------------------5/10--|
D|-3/7-8---7------------8--------|
A|-------------10---8------------|
E|-------------------------------|

Interlude:
G|-----------------------------------|
D|-----------------------------------|
A|-8--8-8---------10--10-10----------|
E|----------6-6---------------8-8----|
                           x2 this bar

Verse 2:
G|---------------------------------|
D|---------------------------------|
A|-8--8-8---------10--10-10--------| (x4)
E|----------6-6---------------8-8--|

(Repeat Refrain 1)

Like Bugs on the windshield...
G|------------------------10-----10---|
D|-3/7-8---7------------8----8-7----7-|
A|-------------10---8-----------------|
E|------------------------------------|

Bridge:
G|--------------------------------------------------------------------|
D|----------------------------------------------3---------------------|
A|-6--6----6-6-6-6--6--6----6-5-4-2-3--3----3-3---3--3--3---3-4-5-4-6-|
E|-------6----------------6---------------3---------------3-----------|
then
G|-------------8-8-7-6-5-----------|
D|---------8-8-----------8-7-6-5-3-|
A|-6-6-6-6-------------------------|
E|---------------------------------|

Interlude:
G|-----------------------------------|
D|-----------------------------------|
A|-8--8-8---------10--10-10----------|
E|----------6-6---------------8-8----|
                           x4 this bar

Refrain 2:
G|-------------------------------------|--------------------------------------------|
D|-------------------3---3-----3-3---3-|---------------------3---3-----7-7/10-7-7\3-|
A|-3/5-5-5-5\3-3-3-3---------3---------|-3/5-5-5-5\3-3-3-3-3---------3--------------|
E|---------------------1-----------1---|-----------------------1--------------------|
                 x3 this bar

(Repeat Refrain 1)

Like Bugs on the windshield...
G|----------------------------------------10----------------5--------------------|
D|-3/7-8---7------------8---7----------10----8---7------------3/7-8---7----------|
A|-------------10---8-----------10---8---------------10---8---------------6(end)-|
E|-------------------------------------------------------------------------------|