Herman's Hermits - Cant You Hear My Heart Beat Text Guitar Tab

Learn song with the online tabulature player
Can't You Hear My Heartbeat
Herman's Hermits
Written by John Carter and Ken Lewis; released as the B-side to 
"Silhouettes" in the UK, and as a single with "I Know Why" as the B-side in 
the USA.

Intro:
G|------ ------ ------ ------|------ ------ ------ ------|
D|---------------------------|-------------------------6h|
A|---------------------------|---------------------------|
E|---------------------------|---------------------------|



G|------ ------ ------ ------|7----- ------ ------ ------|
D|7--------------------------|--------------7----------6h|
A|--------------7------------|---------------------------|
E|---------------------------|---------------------------|



G|------ ------ ------ ------|7----- ------ ------ ------|
D|7----------7---------------|--------------7----------6h|
A|--------------7------------|---------------------------|
E|---------------------------|---------------------------|


Verse:
G|------ ------ ------ ------|7----- ------ ------ ------|
D|7----------7---------------|--------------7----------6h|
A|--------------7------------|---------------------------|
E|---------------------------|---------------------------|
         Every  time       I  see you looking my   way,


G|------ ------ ------ ------|7----- ----7- ------ ------|
D|7----------7---------------|--------------7----------6h|
A|--------------7------------|---------------------------|
E|---------------------------|---------------------------|
         baby,  ba   -    by, can't  hear my heartbeat?
                                  you

G|------ ------ ------ ------|7----- ----7- ------ ------|
D|7----------7---------------|--------------7----------6h|
A|--------------7------------|---------------------------|
E|---------------------------|---------------------------|
         In the park,      or walking down  high - way,
                                         the

G|------ ------ ------ ------|7----- ----7- ------ ------|
D|7----------7---------------|--------------7------------|
A|--------------7----------7-|-------------------------9-|
E|---------------------------|---------------------------|
         baby,  ba   -    by, can't  hear my heartbeat?
                                  you

G|7----- ------ ------ ------|7----- ------ ------ ------|
D|--------------7------------|--------------7------------|
A|-------9-------------10----|-------9-------------10----|
E|---------------------------|---------------------------|
         When you move up     closer to  me,
  ooooooooooooooooooooooooooooooooooooooooooooooooooooooo

G|------ ------ ------ ------|------ ------ ------ ------|
D|-------6------9------7---6-|-------------------------6h|
A|7--------------------------|7--------------------------|
E|---------------------------|---------------------------|
      I  get a  feeling, that's oo   -   wee.
  oooooooooooooooooooooooooooooooooooooooooo

G|------ ------ ------ ------|7----- ----7- ------ ------|
D|7--------------------------|--------------7----------6h|
A|--------------7------------|---------------------------|
E|---------------------------|---------------------------|
         Can't  hear      the pounding of my heartbeat,
             you

G|------ ------ 7----- ----7-|------ ------ ------ ------|
D|7--------------------------|7----------7---------------|
A|---------------------------|--------------7----------7-|
E|---------------------------|---------------------------|
     'cause  the one       I  love,
         you're

G|------ ------ 7----- ----7-|------ ------ ------ ------|
D|7----------7---------------|7--------------------------|
A|---------------------------|---------------------------|
E|---------------------------|---------------------------|
         you're one        I  love.
             the

G|------ ------ ------ ------|
D|-------------------------6-|
A|7------7------7------7-----|
E|---------------------------|


Verse:
G|------ ------ ------ ------|7----- ----7- ------ ------|
D|7--------------------------|--------------7----------6h|
A|--------------7------------|---------------------------|
E|---------------------------|---------------------------|
         When I feel      you put your arms around me,


G|------ ------ ------ ------|7----- ----7- ------ ------|
D|7----------7---------------|--------------7----------6h|
A|--------------7------------|---------------------------|
E|---------------------------|---------------------------|
         baby,  ba   -    by, can't  hear my heartbeat?
                                  you

G|------ ------ ------ ------|7----- ------ ------ ------|
D|7--------------------------|--------------7----------6h|
A|--------------7------------|---------------------------|
E|---------------------------|---------------------------|
         Then I'm glad,   I'm mighty glad I found  you,


G|------ ------ ------ ------|7----- ----7- ------ ------|
D|7----------7---------------|--------------7------------|
A|--------------7------------|-------------------------9-|
E|---------------------------|---------------------------|
         baby,  ba   -    by, can't  hear my heartbeat?
                                  you

G|7----- ------ ------ ------|7----- ------ ------ ------|
D|--------------7------------|--------------7------------|
A|-------9-------------10----|-------9-------------10----|
E|---------------------------|---------------------------|
         When you ask me   to meet your  ma,
  ooooooooooooooooooooooooooooooooooooooooooooooooooooooo

G|------ ------ ------ ------|------ ------ ------ ------|
D|-------6------9------7---6-|-------------------------6h|
A|7--------------------------|7--------------------------|
E|---------------------------|---------------------------|
      I knew that, baby, we'd be going   far.
  oooooooooooooooooooooooooooooooooooooooooo

G|------ ------ ------ ------|7----- ----7- ------ ------|
D|7--------------------------|--------------7----------6h|
A|--------------7------------|---------------------------|
E|---------------------------|---------------------------|
         Can't  hear      the pounding of my heartbeat,
             you

G|------ ------ 7----- ----7-|------ ------ ------ ------|
D|7----------7---------------|7--------------------------|
A|---------------------------|--------------7----------7-|
E|---------------------------|---------------------------|
     'cause  the one       I  love,
         you're

G|------ ------ 7----- ----7-|------ ------ ------ ------|
D|7--------------------------|7--------------------------|
A|---------------------------|---------------------------|
E|---------------------------|---------------------------|
         you're one        I  love.
             the

G|------ ------ ------ ------|
D|-------------------------6-|
A|7------7------7------7-----|
E|---------------------------|


Break (solo):
G|------ ------ ------ ------|7----- ----7- ------ ------|
D|7----------7---------------|--------------7----------6h|
A|--------------7------------|---------------------------|
E|---------------------------|---------------------------|



G|------ ------ 7----- 7---7-|------ ------ ------ ------|
D|7----------7---------------|7----------7---------------|
A|---------------------------|--------------7----------7-|
E|---------------------------|---------------------------|



G|------ ------ ------ ------|7----- ----7- ------ ------|
D|7----------7---------------|--------------7------------|
A|--------------7------------|---------------------------|
E|---------------------------|---------------------------|



G|------ ------ 7----- ------|------ ------ ------ ------|
D|7----------7---------------|--------------7----------6h|
A|---------------------------|7----------7---------------|
E|---------------------------|---------------------------|


Verse:
G|------ ------ ------ ------|7----- ----7- ------ ------|
D|7----------7---------------|--------------7----------6h|
A|--------------7------------|---------------------------|
E|---------------------------|---------------------------|
         All my friends   are crying out to meet   you,


G|------ ------ ------ ------|7----- ----7- ------ ------|
D|7----------7---------------|--------------7----------6h|
A|--------------7------------|---------------------------|
E|---------------------------|---------------------------|
         baby,  ba   -    by, can't  hear my heartbeat?
                                  you

G|------ ------ ------ ------|7----- ----7- ------ ------|
D|7----------7---------------|--------------7----------6h|
A|--------------7------------|---------------------------|
E|---------------------------|---------------------------|
         Now's  time       to go and see the prea- cher,
             the

G|------ ------ ------ ------|7----- ----7- ------ ------|
D|7----------7---------------|--------------7------------|
A|--------------7------------|-------------------------9-|
E|---------------------------|---------------------------|
         baby,  ba   -    by, can't  hear my heartbeat?
                                  you

G|7----- ------ ------ ------|7----- ------ ------ ------|
D|--------------7------------|--------------7------------|
A|-------9-------------10----|-------9-------------10----|
E|---------------------------|---------------------------|
         Wedding bells    are gon -  na  chime,
  ooooooooooooooooooooooooooooooooooooooooooooooooooooooo

G|------ ------ ------ ------|------ ------ ------ ------|
D|-------6------9------7---6-|-------------------------6h|
A|7--------------------------|7--------------------------|
E|---------------------------|---------------------------|
         baby,  baby,  you're gonna  be  mine.
  oooooooooooooooooooooooooooooooooooooooooo

G|------ ------ ------ ------|7----- ------ ------ ------|
D|7--------------------------|--------------7----------6h|
A|--------------7------------|---------------------------|
E|---------------------------|---------------------------|
         Can't  hear      the pounding of my heartbeat,
             you

G|------ ------ 7----- ----7-|------ ------ ------ ------|
D|7----------7---------------|7----------7---------------|
A|---------------------------|--------------7----------7-|
E|---------------------------|---------------------------|
     'cause  the one       I  love,
         you're

G|------ ------ 7----- ----7-|------ ------ ------ ------|
D|7----------7---------------|7--------------------------|
A|---------------------------|---------------------------|
E|---------------------------|---------------------------|
         you're one        I  love.
             the

G|------ ------ ------ ------|
D|---------------------------|
A|7------7------7------7-----|
E|---------------------------|


Outro:
G|------ ------ ------ ------|7----- ------ ------ ------|
D|7----------7---------------|--------------7----------6h|
A|--------------7------------|---------------------------|
E|---------------------------|---------------------------|
         Baby,  ba   -    by, can't  hear my heartbeat?
                                  you

G|------ ------ ------ ------|7----- ----7- ------ ------|
D|7----------7---------------|--------------7----------6h|
A|--------------7----------7-|---------------------------|
E|---------------------------|---------------------------|
         Baby,  ba   -    by, can't  hear my heartbeat?
                                  you

G|------ ------ ------ ------|7----- ----7- ------ ------|
D|7----------7---------------|--------------7----------6h|
A|--------------7------------|---------------------------|
E|---------------------------|---------------------------|
         Baby,  ba   -    by, can't  hear my heartbeat?
                                  you
fade out...

Please e-mail me for any corrections, or write a comment.