Herman's Hermits - Dandy Text Guitar Tab

Learn song with the online tabulature player
Dandy
Herman's Hermits
Written by Ray Davies; released as a single with "My Reservation's Been 
Confirmed" as the B-side, and on the album "There's a Kind of Hush All Over 
the World".

Intro:
G|------ ------ ------ ------|------ ------ ------ ------|
D|---------------------------|---------------------------|
A|---------------------------|---------------------------|
E|---------------------------|---------------------------|



G|------ ------ ------ ------|------ ------ ------ ------|
D|---------------------------|---------------------------|
A|---------------------------|---------------------------|
E|---------------------------|---------------------------|


Verse:
G|------ ------ ------ ------|------ ------ ------ ------|
D|---------------------------|---------------------------|
A|---------------------------|---------------------------|
E|---------------------------|---------------------------|
  Dan -  dy,                  Dan -  dy,


G|------ ------ ------ ------|------ ------ ------ ------|
D|---------------------------|---------------------------|
A|---------------------------|---------------------------|
E|---------------------------|---------------------------|
  where  gonna  go     now,
      you're

G|------ ------ ------ ------|------ ------ ------ ------|
D|---------------------------|---------------------------|
A|---------------------------|---------------------------|
E|---------------------------|---------------------------|
  Who    gonna  run    to?
      you're

G|------ ------ ------ ------|------ ------ ------ ------|
D|5-------------4------------|---------------------4-----|
A|---------------------------|7--------------------------|
E|---------------------------|---------------------------|
  All    your   little     life,                you're


G|------ ------ ------ ------|------ ------ ------ ------|
D|5-------------4------------|---------------------4-----|
A|---------------------------|7--------------------------|
E|---------------------------|---------------------------|
  cha -  sin' all      the girls,                  They


G|------ ------ ------ ------|------ ------ ------ ------|
D|5-------------4------------|---------------------4-----|
A|---------------------------|7--------------------------|
E|---------------------------|---------------------------|
  can't  resist     your      smile,               oh,


G|------ ------ ------ 4-----|5----- ------ 4----- ------|
D|5--------------------------|---------------------------|
A|---------------------------|---------------------------|
E|---------------------------|---------------------------|
  oh,                  they   long          for        Dan-

Verse:
G|------ ------ ------ ------|------ ------ ------ ------|
D|---------------------------|---------------------------|
A|5--------------------------|5--------------------------|
E|--------------5------------|--------------5------------|
         dy,                  Dan -  dy,


G|------ ------ ------ ------|------ ------ ------ ------|
D|---------------------------|---------------------------|
A|5--------------------------|5--------------------------|
E|--------------5------------|--------------5------------|
  che-   out the la    dies,
      ckin'

G|------ ------ ------ ------|------ ------ ------ ------|
D|---------------------------|---------------------------|
A|5--------------------------|5--------------------------|
E|--------------5------------|--------------5------------|
  Tick - ling   fan -  cy,
             their

G|------ ------ ------ ------|------ ------ ------ ------|
D|5-------------4------------|---------------------4-----|
A|---------------------------|7--------------------------|
E|---------------------------|---------------------------|
  Pou -  rin' out      your charms                 to


G|------ ------ ------ ------|------ ------ ------ ------|
D|5-------------4------------|---------------------4-----|
A|---------------------------|7--------------------------|
E|---------------------------|---------------------------|
  meet   your own      demands,                 And    you


G|------ ------ ------ ------|------ ------ ------ ------|
D|5-------------4------------|---------------------4-----|
A|---------------------------|7--------------------------|
E|---------------------------|---------------------------|
  turn   it  off      at     will,                oh,


G|------ ------ ------ 4-----|5----- ------ 4----- ------|
D|5--------------------------|---------------------------|
A|---------------------------|---------------------------|
E|---------------------------|---------------------------|
  oh,                  they   long          for        Dan-

Verse:
G|------ ------ ------ ------|------ ------ ------ ------|
D|---------------------------|---------------------------|
A|5--------------------------|5--------------------------|
E|--------------5------------|--------------5------------|
         dy,                  Dan -  dy,


G|------ ------ ------ ------|------ ------ ------ ------|
D|---------------------------|---------------------------|
A|5--------------------------|5--------------------------|
E|--------------5------------|--------------5------------|
  knockin' on the backdoor,


G|------ ------ ------ ------|------ ------ ------ ------|
D|---------------------------|---------------------------|
A|5--------------------------|5--------------------------|
E|--------------5------------|--------------5------------|
  Climbing   the win - dow,
         through

G|------ ------ ------ ------|------ ------ ------ ------|
D|5-------------4------------|---------------------4-----|
A|---------------------------|7--------------------------|
E|---------------------------|---------------------------|
  Hub -  by's   gone   a - way,                 and


G|------ ------ ------ ------|------ ------ ------ ------|
D|5-------------4------------|---------------------4-----|
A|---------------------------|7--------------------------|
E|---------------------------|---------------------------|
  while  the cat's     a - way,                    The


G|------ ------ ------ ------|------ ------ ------ ------|
D|5-------------4------------|---------------------4-----|
A|---------------------------|7--------------------------|
E|---------------------------|---------------------------|
  mice   are    gonna         play,                oh,


G|------ ------ ------ 4-----|5----- ------ 4----- ------|
D|5--------------------------|---------------------------|
A|---------------------------|---------------------------|
E|---------------------------|---------------------------|
  oh,                  you    low           down       Dan-


G|------ ------ ------ ------|------ ------ ------ ------|
D|---------------------------|---------------------------|
A|5--------------------------|5--------------------------|
E|--------------5------------|--------------5------------|
         dy,                  Dan -  dy,


G|------ ------ ------ ------|------ ------ ------ ------|
D|---------------------------|--------------2------3-----|
A|5--------------------------|5------5-------------------|
E|--------------5------------|---------------------------|
  Dan -  dy.

Bridge:
G|------ ------ ------ ------|------ ------ ------ ------|
D|4--------------------------|4--------------------------|
A|--------------4------------|--------------4------------|
E|---------------------------|---------------------------|
  Dan    -      dy,                  you    know   you're


G|------ ------ ------ ------|------ ------ ------ ------|
D|6--------------------------|6--------------------------|
A|--------------4------------|--------------4------------|
E|---------------------------|---------------------------|
  mo  -  ving   much   too    fast,             And


G|------ ------ ------ ------|------ ------ ------ ------|
D|4--------------------------|4--------------------------|
A|--------------4------------|--------------4------------|
E|---------------------------|---------------------------|
  Dan    -      dy,                  you    know   you


G|------ ------ ------ ------|------ ------ ------ ------|
D|6--------------------------|6--------------------------|
A|--------------4------------|---------------------------|
E|---------------------------|-------9------8------6-----|
  can't  escape        the past,                   Look a-


G|------ ------ ------ ------|------ ------ ------ ------|
D|7--------------------------|7--------------------------|
A|--------------7------------|--------------4------5-----|
E|---------------------------|---------------------------|
  round         you,                 and    see    the peo-


G|------ ------ ------ ------|------ ------ ------ ------|
D|---------------------------|---------------------------|
A|7--------------------------|7--------------------------|
E|--------------7------------|--------------7------------|
         ple    settle     down,                And


G|------ ------ ------ ------|------ ------ ------ ------|
D|---------------------------|---------------------------|
A|---------------------------|---------------------------|
E|5--------------------------|3--------------------------|
  when   you're old    and    grey   you will      re-


G|------ ------ ------ ------|------ ------ ------ ------|
D|---------------------------|---------------------------|
A|---------------------------|---------------------------|
E|2--------------------------|1--------------------------|
  mem -  ber what   they      said,                That


G|------ ------ ------ ------|------ ------ ------ ------|
D|---------------------------|---------------------------|
A|---------------------------|---------------------------|
E|5--------------------------|3--------------------------|
  two    girls  are    too    ma- ny,       Three's a


G|------ ------ ------ ------|------ ------ ------ ------|
D|---------------------------|---------------------------|
A|---------------------------|-------0------2------4-----|
E|2--------------------------|1--------------------------|
  crowd, and    four:  you're dead!             Oh,

Verse:
G|------ ------ ------ ------|------ ------ ------ ------|
D|---------------------------|---------------------------|
A|5--------------------------|5--------------------------|
E|--------------5------------|--------------5------------|
  Dan -  dy,                  Dan -  dy,


G|------ ------ ------ ------|------ ------ ------ ------|
D|---------------------------|---------------------------|
A|5--------------------------|5--------------------------|
E|--------------5------------|--------------5------------|
  when   gonna  give   up,
      you're

G|------ ------ ------ ------|------ ------ ------ ------|
D|---------------------------|---------------------4-----|
A|5--------------------------|5-------------5------------|
E|--------------5------------|---------------------------|
  Are    feelin' old   now?                     You
      you

G|------ ------ ------ ------|------ ------ ------ ------|
D|5-------------4------------|---------------------4-----|
A|---------------------------|7-------------5------------|
E|---------------------------|---------------------------|
  al  -  ways   will   be  free,                and you need


G|------ ------ ------ ------|------ ------ ------ ------|
D|5----------5--4------4-----|---------------------4-----|
A|---------------------------|7-------------5------------|
E|---------------------------|---------------------------|
         no     sym -  pathy,                   A


G|------ ------ ------ ------|------ ------ ------ ------|
D|5----------5--4------4-----|---------------------4-----|
A|---------------------------|7-------------5------------|
E|---------------------------|---------------------------|
  bache- lor    you    will   stay,                and


G|------ ------ ------ ------|------ ------ ------ ------|
D|5--------------------------|---------------------------|
A|---------------------2-----|3-------------2------------|
E|-----------3--3------------|---------------------------|
  Dan        -         dy,    you're        all        right,

Outro:
G|------ ------ ------ ------|------ ------ ------ ------|
D|---------------------------|---------------------------|
A|5----------5--5------------|3--------------------------|
E|---------------------------|--------------3------------|
                              You're        all        right,
repeat and fade out...

Please e-mail me for any corrections, or write a comment.