Herman's Hermits - Henry Viii Text Guitar Tab

Learn song with the online tabulature player
Just a note, I tabbed out each individual sixteenth note to make the
timing easier. On the verses, it sounds just as good to play only
eighth notes, and on the -I'm her eighth old man, I'm Henry- parts, only
quarter notes if I have not tabbed it that way already.

Have fun with this ridiculous, nonsensical, and easy piece of the Sixties!

EDIT: I used a live version to tab this song out. I just now noticed that the live 
version is a step and a half above the studio version, so play accordingly.

INTRO
G|----------------|
D|--R-E-S-T-x-2---|
A|----------------|
E|----------------|

VERSE 1
G|----------------------------------------------------------------|
D|----------------------------------------------------------------|
A|---------------------------------5-5-5-5-5-5-5-5----------------|
E|-5-5-5-5-5-5-5-5-5-5-5-5-5-5-5-5-----------------5-5-5-5-5-5-5-5|

G|----------------------------------------------------------------|
D|----------------------------------------------------------------|
A|-----------------------------------------------5-7-7-7-7-7-7-7-7|
E|-5-5-5-5-5-5-5-5-5-5-5-5-5-5-5-5-7-7-7-7-7-7-7------------------|

G|----------------------------------------------------------------|
D|----------------------------------------------------------------|
A|-----------------7-7-7-7-7-7-7-7-5-5-5-5-5-5-5-5-7-7-7-7-7-7-7-7|
E|-5-5-5-5-5-5-5-5------------------------------------------------|

G|----------------------------------------------------------------|
D|----------------------------------------------------------------|
A|---------4-------5----------------------------------------------|
E|-5-----------------------2-------7-------0-------5--------------|

G|----------------|
D|--R-E-S-T-x-2---|
A|----------------|
E|----------------|

Verse 2
G|----------------------------------------------------------------|
D|----------------------------------------------------------------|
A|---------------------------------5-5-5-5-5-5-5-5----------------|
E|-5-5-5-5-5-5-5-5-5-5-5-5-5-5-5-5-----------------5-5-5-5-5-5-5-5|

G|----------------------------------------------------------------|
D|----------------------------------------------------------------|
A|-----------------------------------------------5-7-7-7-7-7-7-7-7|
E|-5-5-5-5-5-5-5-5-5-5-5-5-5-5-5-5-7-7-7-7-7-7-7------------------|

G|----------------------------------------------------------------|
D|----------------------------------------------------------------|
A|-----------------7-7-7-7-7-7-7-7-5-5-5-5-5-5-5-5-7-7-7-7-7-7-7-7|
E|-5-5-5-5-5-5-5-5------------------------------------------------|

G|----------------------------------------------------------------|
D|----------------------------------------------------------------|
A|---------4-------5----------------------------------------------|
E|-5-----------------------2-------7-------0-------5--------------|

SOLO
G|----------------------------------------------------------------|
D|----------------------------------------------------------------|
A|---------------------------------5-5-5-5-5-5-5-5----------------|
E|-5-5-5-5-5-5-5-5-5-5-5-5-5-5-5-5-----------------5-5-5-5-5-5-5-5|

G|----------------------------------------------------------------|
D|----------------------------------------------------------------|
A|-----------------------------------------------5-7-7-7-7-7-7-7-7|
E|-5-5-5-5-5-5-5-5-5-5-5-5-5-5-5-5-7-7-7-7-7-7-7------------------|

G|----------------------------------------------------------------|
D|----------------------------------------------------------------|
A|-----------------7-7-7-7-7-7-7-7-5-5-5-5-5-5-5-5-7-7-7-7-7-7-7-7|
E|-5-5-5-5-5-5-5-5------------------------------------------------|

G|----------------------------------------------------------------|
D|----------------------------------------------------------------|
A|---------4-------5----------------------------------------------|
E|-5-----------------------2-------7-------0-------5--------------|

OUTRO
G|----------------|
D|--R-E-S-T-x-2---|
A|----------------|
E|----------------|

G|----------------------------------------------------------------|
D|----------------------------------------------------------------|
A|----------------------------------------------------------------|
E|-5-5-5-5-5-5-5-5-2-2-2-2-2-2-2-2-5-5-5-5-0-0-0-0-5-5-5-5-2-2-2-2|

G|----------------------------------------------------------------|
D|----------------------------------------------------------------|
A|----------------------------------------------------------------|
E|-7-7-7-7-0-0-0-0-5------------5-------5---------------5---------|