Hey Rosetta - Black Heart Text Guitar Tab

Learn song with the online tabulature player
-------------------------------------------------------------------------------
                                              Black Heart - Hey Rosetta!
-------------------------------------------------------------------------------
Tabbed by:Soccerguy
Email:colinpowell111@hotmail.com

Tuning:Standard
Intro/Verse
e|-------------------------------------------------------|-----------|
B|-------------------------------------------------------|-----------|
G|-------------------------------------------------------|-----------|
D|----10-10-10-10--9-9-9-9---12--12--12--12--11-11-11-11-|--7-7-7----|
A|-------------------------------------------------------|-----------|
E|---8--8--8--8---7-7-7-7--10--10--10--10---9--9--9--9---|-5-5-5-5---|
Guitar 2
e|---------------------------------------------------------------|
B|---------------------------------------------------------------|
G|---5---4---7---6-----------------------------------------------|
D|--5---4---7---6------------------------------------------------|
A|-3---2---5---4-------------------------------------------------|
E|---------------------------------------------------------------|

e|------12-------------------------------------------|
B|-10-10---8-10-7-8-7-5-5b---------------------------|
G|---------------------------------------------------|
D|---------------------------------------------------|
A|---------------------------------------------------|
E|---------------------------------------------------|

During this verse, there's a bunch of notes played up around the, 8th, 10th and 12th frets
e|---------------------------------------------|
B|---------------------------------------------|
G|-5-4-7-5-------------------------------------|
D|-5-4-7-5-------------------------------------|
A|-3-2-5-3-------------------------------------|
E|---------------------------------------------|

e|-----------------------------------------------------------------|
B|-----------------------------------------------------------------|
G|---4-2-----------------------------------------------------------|
D|-2-4-2-----------------------------------------------------------|
A|-2-2-0-----------------------------------------------------------|
E|-0---------------------------------------------------------------|

e|---------------10-------------------------------------------|
B|-10-12-10-8-8b---10-8-10*-12s14*----------------------------|
G|------------------------------------------------------------|
D|------------------------------------------------------------|
A|------------------------------------------------------------|
E|------------------------------------------------------------|

e|------------------------------------------------------------|
B|------------------------------------------------------------|
G|-2*4*7*9*12*------------------------------------------------|
D|-2-4-7-9-12-------------------------------------------------|
A|-0-2-5-7-10-------------------------------------------------|
E|------------------------------------------------------------|

e|-2-3-3-0-3-----------------------------------------------------|
B|-3-3-3-0-3-----------------------------------------------------|
G|-2-0-0-1-0-----------------------------------------------------|
D|-0-0-0-2-0-----------------------------------------------------|
A|---2-2-2-2-----------------------------------------------------|
E|---3-2-0-3-----------------------------------------------------|

e|-------------------------10-|17------|----------------------|
B|---10--10-10*--10-9-10-12---|--------|-21-17-21-17-17~-17-15|
G|-77--77--7------------------|--14-14*|----------------------|
D|------------------------------------------------------------|
A|------------------------------------------------------------|
E|------------------------------------------------------------|

e|------------------0------------------------------------------|
B|------------------2------------------------------------------|
G|-7-7-7-9-11-55----2------------------------------------------|
D|-7-7--------55----2------------------------------------------|
A|------------33-2b-0------------------------------------------|
E|-------------------------------------------------------------|

| /  slide up
| \  slide down
| h  hammer-on
| p  pull-off
| ~  vibrato
| +  harmonic
| x  Mute note
| *  Play a lot
============================================================================