Hey Rosetta - Red Heart Text Guitar Tab

Learn song with the online tabulature player
This is played on a 6 string bass, but since I don't have on yet...hears the 4 string 
which I'm sure is more playable to most people anyways.

Intro
G|----------------------------|
D|---------------4----4/6\4-2-|  Plays with through E and F# with some
A|--------------4---4---------|  various fills, mainly 5ths.
E|0----2----0-----------------|

Main Part
G|-----------------------------------|
D|22-2-2-222-2-2-2-44-4-4-444-4-4-6-o| <-main idea, with fills thrown in.
A|----------------------------------o|
E|-----------------------------------|

Fill example
G|----------------------------643--|
D|22-2-2-222-221--44-4-4-444-4---6-|
A|--------------42-----------------|
E|---------------------------------|

Breakdown Thing
G|------------|
D|-2------4---|
A|-----2------|
E|------------|

Next Part
G|------------------------------------------------------886643--|
D|22-2-2-222-22-244-4-4-444-44-466-6-6-666-66-688-8-8-88------6-|
A|--------------------------------------------------------------|
E|--------------------------------------------------------------|

Then Goes back to main part

Cool Part
G|--4-3h4------6-43----|
D|22-2---4--o44-4--4--o|
A|--------2-o-------2-o|
E|---------------------|

Then it quiets down and he plays the Breakdown thing part with a different rhythm which 
can listen to get. Then it quiets down again and you get this wicked part


G|-----------------|
D|2211------1244-4-|  with variations and then finally the last part
A|----442222----4--|
E|-----------------|


G|---14-4/6-6/8-643---|
D|224--4-------6---62-|
A|--------------------|
E|--------------------|