Hidden In Plain View - Bendy Text Guitar Tab

Learn song with the online tabulature player
Drop-D
Note: notes aren't shown as many times as they're played

Intro
[Guitar 1]
e|---------------------------------------------------------|
B|---------------------------------------------------------|
G|------------------------------0-----0-----0-----0--------|
D|---2-------2----------2-----0-----0-----0-----0----------|
A|-----3-2-3---3-2-0------3-2-----2-----2-----2------------|
D|-3------------------3------------------------------------|

e|-------------------------------------------|
B|-------------------------------------------|
G|-------------------------------------------|
D|---2-------2----------7---7---7-5----------|
A|-----3-2-3---3-2-0--7---7---5-----7-5-3----|
D|-3-----------------------------------------|

[Guitar 2]
e|---------------------------------------|
B|---------------------------------------|
G|---------------------------------------|
D|-3---5----3---5---3---5---7---5--------|
A|-3---5----3---5---3---5---7---5--------|
D|-3---5----3---5---3---5---7---5--------|

Verse
e|-------------------------------------------------------------------|
B|-------------------------------------------------------------------|
G|-------------------------------------------------------------------|
D|-3-3-3-3-3-3---5-5-5-5-5-5-------3----5-----3-----5---10--12--10---|
A|-3-3-3-3-3-3---5-5-5-5-5-5--x2---3----5-----3-----5---10--10--10---|
D|-3-3-3-3-3-3---5-5-5-5-5-5-------3----5-----3-----5---10--10--10---|
pm   .........     .........

Chorus
[Guitar 1]
e|-----------------------|
B|-----------------------|
G|-----------------------|
D|-10----3---10----3-----|
A|-10----3---10----3-----|
D|-10----3---10----3-----|

[Guitar 2]
e|-----------------------------------|
B|-----------------------------------|
G|-5-7-9--10-12-9--10-13-9-----------|
D|-x-x-x--x--x--x-----x--x--x2-------|
A|-3-5-7--8--10-7--8--11-7-----------|
D|-----------------------------------|

[Guitar 3]
e|----------------------------------------|
B|----------------------------------------|
G|-12-16-17--19-21-17--19-21-17-----------|
D|-x--x--x---x--x--x---x--x--x----x2------|
A|-10-14-15--17-19-15--17-10-15-----------|
D|----------------------------------------|

Intro
e|-------------------------------------------|
B|-------------------------------------------|
G|-------------------------------------------|
D|---2-------2----------7---7---7-5----------|
A|-----3-2-3---3-2-0--7---7---5-----7-5-3----|
D|-3-----------------------------------------|

[Guitar 1]
e|---------------------------------------------------------|
B|---------------------------------------------------------|
G|------------------------------0-----0-----0-----0--------|
D|---2-------2----------2-----0-----0-----0-----0----------|
A|-----3-2-3---3-2-0------3-2-----2-----2-----2------------|
D|-3------------------3------------------------------------|

e|-------------------------------------------|
B|-------------------------------------------|
G|-------------------------------------------|
D|---2-------2----------7---7---7-5----------|
A|-----3-2-3---3-2-0--7---7---5-----7-5-3----|
D|-3-----------------------------------------|

[Guitar 2]
e|---------------------------------------|
B|---------------------------------------|
G|---------------------------------------|
D|-3---5----3---5---3---5---7---5--------|
A|-3---5----3---5---3---5---7---5--------|
D|-3---5----3---5---3---5---7---5--------|

Verse
[Guitar 1]
e|-------------------------------------------------------|
B|-------------------------------------------------------|
G|-------------------------------------------------------|
D|-----------------3----5------3-----5-----3-----5-------|
A|-----------------3----5------3-----5-----3-----5-------|
D|-----------------3----5------3-----5-----3-----5-------|

[Guitar 2]
e|------------------15--------15---15----------15---------------------|
B|---------------------12-13----------12-13-------12-13-15--17--------|
G|--5---7---5---7---------------------------14------------------------|
D|--x---x---x---x-----------------------------------------------------|
A|--3---5---3---5-----------------------------------------------------|
D|--------------------------------------------------------------------|

Bridge
e|------------------------------------------------------------------------|
B|------------------------------------------------------------------------|
G|------------------------------------------------------------------------|
D|--7---10---3----7--10---5--5--7---10---3----7--10---5---5---3---10------|
A|--7---10---3----7--10---5--5--7---10---3----7--10---5---5---3---10------|
D|--7---10---3----7--10---5--5--7---10---3----7--10---5---5---3---10------|

e|---------------------|
B|---------------------|
G|--12----5---12---5---|
D|--10----3---10---3---|
A|--10----3---10---3---|
D|--10----3---10---3---|

[Guitar 2]
e|------------15---15-------------------------------------|
B|-13------13----13----13--12/13--------12-12-12----------|
G|----12-------------------------12-----------------------|
D|------14--------------------------14--------------------|
A|--------------------------------------------------------|
D|--------------------------------------------------------|

e|------------15---15--15/17\15-13-12--------------------------|
B|-13------13----13-------------------15-13-12-12-15-----------|
G|----12---------------------------------------------14-12-----|
D|------14-----------------------------------------------------|
A|-------------------------------------------------------------|
D|-------------------------------------------------------------|

Outro
e|--------------------------------|
B|--------------------------------|
G|--------------------------------|
D|--2--5--3-10---2--5--3--10------|
A|--2--5--3-10---2--5--3--10------|
D|--2--5--3-10---2--5--3--10------|