Hidden In Plain View - Circles Text Guitar Tab

Learn song with the online tabulature player
Drop-D
Only guitar 1

Intro/Verse:
e|-------------------------------------------------------------------------|
B|-------------------------------------------------------------------------|
G|-------------------------------------------------------------------------|
D|--7---0---7-7--7-7--7-7-7--0-0---0-0---0--7-7--7-7--7-7-7--0-0---0-0---0-|
A|--7---0---7-7--7-7--7-7-7--0-0---0-0---0--7-7--7-7--7-7-7--0-0---0-0---0-|
D|--7---0---7-7--7-7--7-7-7--0-0---0-0---0--7-7--7-7--7-7-7--0-0---0-0---0-|
pm           .............................................................

e|----------------------|
B|----------------------|
G|----------------------|
D|--5-7-5-7-5-7-5-2-5---|
A|--5-7-5-7-5-7-5-2-5---|
D|--5-7-5-7-5-7-5-2-5---|
each note 8 times except last two (x4)

Chorus:
e|-----------|
B|-----------|
G|-----------|
D|-0-5-0-5---|
A|-0-5-0-5---|
D|-0-5-0-5---|
each note 16 times

Post Chorus/Verse 2:
e|-------------------------------------------------------------------------|
B|-------------------------------------------------------------------------|
G|-------------------------------------------------------------------------|
D|--7---0---7-7--7-7--7-7-7--0-0---0-0---0--7-7-7-7-7-7-7--0-0---0-0---0---|
A|--7---0---7-7--7-7--7-7-7--0-0---0-0---0--7-7-7-7-7-7-7--0-0---0-0---0---|
D|--7---0---7-7--7-7--7-7-7--0-0---0-0---0--7-7-7-7-7-7-7--0-0---0-0---0---|
pm           ..............................

e|----------------------|
B|----------------------|
G|----------------------|
D|--5-7-5-7-5-7-5-2-5---|
A|--5-7-5-7-5-7-5-2-5---|
D|--5-7-5-7-5-7-5-2-5---|
each note 8 times except last two (x4)

Chorus:
e|-----------|
B|-----------|
G|-----------|
D|-0-5-0-5---|
A|-0-5-0-5---|
D|-0-5-0-5---|
each note 16 times

Bridge:
e|-------------------------------------------|
B|-------------------------------------------|
G|-------------------------------------------|
D|-2-4-5-7-5--2-4-5-7-5--2-4-5-7-5--2-4-5-7--|
A|-2-4-5-7-5--2-4-5-7-5--2-4-5-7-5--2-4-5-7--|
D|-2-4-5-7-5--2-4-5-7-5--2-4-5-7-5--2-4-5-7--|


Chorus/Outro:
e|------------------------------------------------------------------------|
B|------------------------------------------------------------------------|
G|------------------------------------------------------------------------|
D|-0-5-0-5----0-5-0-5---7-7--7-7---7-7--7-7---7-7----7-7---7-7---7-7------|
A|-0-5-0-5----0-5-0-5---7-7--7-7---7-7--7-7---7-7----7-7---7-7---7-7------|
D|-0-5-0-5----0-5-0-5---7-7--7-7---7-7--7-7---7-7----7-7---7-7---7-7------|
pm                      ............................................