Hidden In Plain View - Garden Statement Text Guitar Tab

Learn song with the online tabulature player
Artist: Hidden In Plain View
Track: Garden Statement
Album: Life In Dreaming

Tabbed By: $hab (Shab)
Email: rupertthepinkelephant@hotmail.com

Tuning: Drop D (DADGBE)

Ok, sorry about this tab being generally similar to Version 1 but there are quite a few
corrections that have had to be made because of the difference in tuning. I thought it
would be a lot easier for people to just learn from a seperate tab rather than have to
check out comments I made and piece together the right bits. You can rate this tab badly
if you must but I assure you it's all correct and only created in the interest of your
convinience. ;D


Intro:


Guitar 1
E-----------------------------------------------------------------------------------------------------------|
B-----------------------------------------------------------------------------------------------------------|
G---6-6-6-6----------6-6-6-6----------6-6-6-6----------6-6-6-6----------6-6-6-6----------6-6-6-6------------|
D---4-4-4-4---0-0----4-4-4-4---0-0----4-4-4-4---0-0----4-4-4-4---0-0----4-4-4-4---0-0----4-4-4-4---0-0------|
A---2-2-2-2---0-0----2-2-2-2---0-0----2-2-2-2---0-0----2-2-2-2---0-0----2-2-2-2---0-0----2-2-2-2---0-0------|
D-------------0-0--------------0-0--------------0-0--------------0-0--------------0-0--------------0-0------|


Guitar 2
E----------------------------------------5----5-----------5----5-----------5----5-----------5----5----------|
B-------------------------------------2h3--2h3--2h3----2h3--2h3--2h3----2h3--2h3--2h3----2h3--2h3--2h3------|
G-----------------------------------------------------------------------------------------------------------|
D-----------------------------------------------------------------------------------------------------------|
A-----------------------------------------------------------------------------------------------------------|
D-----------------------------------------------------------------------------------------------------------|

Verse One:
(Both Guitars Palm Mute Every Note Besides The First And Last Chord Of Each Figure)

Guitar 1:
E------------------------------------------------------------------------|
B------------------------------------------------------------------------|
G------------------------------------------------------------------------|
D-2-22222222222222222222222222222---000000000000000000000000000000000----|
A-2-22222222222222222222222222222---000000000000000000000000000000000----|
D-2-22222222222222222222222222222---000000000000000000000000000000000----|
  ..........................      ..............................
Guitar 2:
E------------------------------------------------------------------------|
B------------------------------------------------------------------------|
G-4-44444444444444444444444444444----------------------------------------|
D-4-44444444444444444444444444444---000000000000000000000000000000000----|
A-2-22222222222222222222222222222---000000000000000000000000000000000----|
D-----------------------------------000000000000000000000000000000000----|
    .........................       ..............................


Guitar 1:
E------------------------------------------------------------------------|
B------------------------------------------------------------------------|
G------------------------------------------------------------------------|
D-2-22222222222222222222222222222---000000000000000000000000000000000----|
A-2-22222222222222222222222222222---000000000000000000000000000000000----|
D-2-22222222222222222222222222222---000000000000000000000000000000000----|
  ..........................      ..............................
Guitar 2:
E------------------------------------------------------------------------|
B------------------------------------------------------------------------|
G-4-44444444444444444444444444444----------------------------------------|
D-4-44444444444444444444444444444---000000000000000000000000000000000----|
A-2-22222222222222222222222222222---000000000000000000000000000000000----|
D-----------------------------------000000000000000000000000000000000----|
    .........................       ..............................

Pre-Chorus:
(Both Guitars Palm Mute The Last Few Notes Into A Crushendo Towards The Chorus)

Guitar 1:
E-------------------------------------------------------------------------|
B-------------------------------------------------------------------------|
G-4~~~-----4~~-----4~~~-----4~~~------------------------------------------|
D-x~~~-----x~~-----x~~~-----x~~~----0~~~-----0~~~-----00000000-55555555---|
A-2~~~-----2~~-----2~~~-----2~~~----0~~~-----0~~~-----00000000-55555555---|
D-----------------------------------0~~~-----0~~~-----00000000-55555555---|


Guitar 2:
E-------------------------------------------------------------------------|
B-------------------------------------------------------------------------|
G-4~~~-----4~~-----4~~~-----4~~~------------------------------------------|
D-x~~~-----x~~-----x~~~-----x~~~----0~~~-----0~~~-----00000000-55555555---|
A-2~~~-----2~~-----2~~~-----2~~~----0~~~-----0~~~-----00000000-55555555---|
D-----------------------------------0~~~-----0~~~-----00000000-55555555---|


Chorus:


Guitar 1:
E----------------------------------------------------------------------|
B----------------------------------------------------------------------|
G---4-4-4-4----------4-4-4-4----------2-2-2-2----------2-2-2-2---------|
D---4-4-4-4---0-0----4-4-4-4---0-0----2-2-2-2---0-0----2-2-2-2---0-0---|
A---2-2-2-2---0-0----2-2-2-2---0-0----0-0-0-0---0-0----0-0-0-0---0-0---|
D-------------0-0--------------0-0--------------0-0--------------0-0---|

Guitar 2:
E-------5----5-----------5----5-------7p5---7p5--------7p5---7p5-------|
B---2h3--2h3--2h3----2h3--2h3--2h3-------------------------------------|
G----------------------------------------------------------------------|
D----------------------------------------------------------------------|
A----------------------------------------------------------------------|
D----------------------------------------------------------------------|


Guitar 1:
E----------------------------------------------------------------------|
B----------------------------------------------------------------------|
G---4-4-4-4----------4-4-4-4----------2-2-2-2----------2-2-2-2---------|
D---4-4-4-4---0-0----4-4-4-4---0-0----2-2-2-2---0-0----2-2-2-2---0-0---|
A---2-2-2-2---0-0----2-2-2-2---0-0----0-0-0-0---0-0----0-0-0-0---0-0---|
D-------------0-0--------------0-0--------------0-0--------------0-0---|

Guitar 2:
E-------5----5-----------5----5-------7p5---7p5--------7p5---7p5-------|
B---2h3--2h3--2h3----2h3--2h3--2h3-------------------------------------|
G----------------------------------------------------------------------|
D----------------------------------------------------------------------|
A----------------------------------------------------------------------|
D----------------------------------------------------------------------|


Verse Two:


Guitar 1:
E------------------------------------------------------------------------------------|
B------------------------------------------------------------------------------------|
G-------4-----------4----------4----------4---------2--------2-----------------------|
D----4---4-------4---4------4---4------4---4------0---0----0---0------2---------2----|
A--2--2---2----2--2---2---2--2---2---2--2---2---0--------0----------0---0-----0---0--|
D-----------------------------------------------------------------0---------0--------|
  ..........................      ..............................
Guitar 2: (Towards The End Of The Verse He Starts Playing Something Like This But It's 
To Hear)
E---------------------------------------------------------------7-----------7--------|
B-----------------------------------------------------------7-----7-----7-----7---7--|
G---------------------------------------------------------4---4-------4---4-----4----|
D------------------------------------------------------------------------------------|
A------------------------------------------------------------------------------------|
D------------------------------------------------------------------------------------|
    .........................       ..............................


Guitar 1:
E------------------------------------------------------------------------------------|
B------------------------------------------------------------------------------------|
G-------4-----------4----------4----------4---------2--------2-----------------------|
D----4---4-------4---4------4---4------4---4------0---0----0---0------2---------2----|
A--2--2---2----2--2---2---2--2---2---2--2---2---0--------0----------0---0-----0---0--|
D-----------------------------------------------------------------0---------0--------|
  ..........................      ..............................
Guitar 2: (Towards The End Of The Verse He Starts Playing Something Like This But It's 
To Hear)
E---------------------------------------------------------------7-----------7--------|
B-----------------------------------------------------------7-----7-----7-----7---7--|
G---------------------------------------------------------4---4-------4---4-----4----|
D------------------------------------------------------------------------------------|
A------------------------------------------------------------------------------------|
D------------------------------------------------------------------------------------|
    .........................       ..............................

Pre-Chorus:
(Both Guitars Palm Mute The Last Few Notes Into A Crushendo Towards The Chorus)

Guitar 1:
E-------------------------------------------------------------------------|
B-------------------------------------------------------------------------|
G-4~~~-----4~~-----4~~~-----4~~~------------------------------------------|
D-x~~~-----x~~-----x~~~-----x~~~----0~~~-----0~~~-----00000000-55555555---|
A-2~~~-----2~~-----2~~~-----2~~~----0~~~-----0~~~-----00000000-55555555---|
D-----------------------------------0~~~-----0~~~-----00000000-55555555---|


Guitar 2:
E-------------------------------------------------------------------------|
B-------------------------------------------------------------------------|
G-4~~~-----4~~-----4~~~-----4~~~------------------------------------------|
D-x~~~-----x~~-----x~~~-----x~~~----0~~~-----0~~~-----00000000-55555555---|
A-2~~~-----2~~-----2~~~-----2~~~----0~~~-----0~~~-----00000000-55555555---|
D-----------------------------------0~~~-----0~~~-----00000000-55555555---|


Chorus: (Play Twice)


Guitar 1:
E----------------------------------------------------------------------|
B----------------------------------------------------------------------|
G---4-4-4-4----------4-4-4-4----------2-2-2-2----------2-2-2-2---------|
D---4-4-4-4---0-0----4-4-4-4---0-0----2-2-2-2---0-0----2-2-2-2---0-0---|
A---2-2-2-2---0-0----2-2-2-2---0-0----0-0-0-0---0-0----0-0-0-0---0-0---|
D-------------0-0--------------0-0--------------0-0--------------0-0---|

Guitar 2:
E-------5----5-----------5----5-------7p5---7p5--------7p5---7p5-------|
B---2h3--2h3--2h3----2h3--2h3--2h3-------------------------------------|
G----------------------------------------------------------------------|
D----------------------------------------------------------------------|
A----------------------------------------------------------------------|
D----------------------------------------------------------------------|


Guitar 1:
E----------------------------------------------------------------------|
B----------------------------------------------------------------------|
G---4-4-4-4----------4-4-4-4----------2-2-2-2----------2-2-2-2---------|
D---4-4-4-4---0-0----4-4-4-4---0-0----2-2-2-2---0-0----2-2-2-2---0-0---|
A---2-2-2-2---0-0----2-2-2-2---0-0----0-0-0-0---0-0----0-0-0-0---0-0---|
D-------------0-0--------------0-0--------------0-0--------------0-0---|

Guitar 2:
E-------5----5-----------5----5-------7p5---7p5--------7p5---7p5-------|
B---2h3--2h3--2h3----2h3--2h3--2h3-------------------------------------|
G----------------------------------------------------------------------|
D----------------------------------------------------------------------|
A----------------------------------------------------------------------|
D----------------------------------------------------------------------|


Bridge-("It's Like I'm Falling Asleep With My Eyes Open...")


Guitar 1:
E-xxxx---------------------------------------------------------------------------------|
B-xxxx---------------------------------------------------------------------------------|
G-xxxx---------------------------------------------------------------------------------|
D-xxxx--00000000000000000000000000000000--55555555555555555555555555555555-------------|
A-xxxx--00000000000000000000000000000000--55555555555555555555555555555555-------------|
D-xxxx--00000000000000000000000000000000--55555555555555555555555555555555-------------|

Guitar 2:
E-xxxx---------------------------------------------------------------------------------|
B-xxxx---------------------------------------------------------------------------------|
G-xxxx---------------------------------------------------------------------------------|
D-xxxx--00000000000000000000000000000000--55555555555555555555555555555555-------------|
A-xxxx--00000000000000000000000000000000--55555555555555555555555555555555-------------|
D-xxxx--00000000000000000000000000000000--55555555555555555555555555555555-------------|


Guitar 1:
E-xxxx---------------------------------------------------------------------------------|
B-xxxx---------------------------------------------------------------------------------|
G-xxxx---------------------------------------------------------------------------------|
D-xxxx--22222222222222222222222222222222--55555555555555555555555555555555-------------|
A-xxxx--22222222222222222222222222222222--55555555555555555555555555555555-------------|
D-xxxx--22222222222222222222222222222222--55555555555555555555555555555555-------------|

Guitar 2:
E-------------------------------------------2---2---2---2---2---2---2h3333-------------|
B---------------------------------------------3---3---3---3---3---3--------------------|
G--------------------------------------------------------------------------------------|
D-------22222222222222222222222222222222-----------------------------------------------|
A-------22222222222222222222222222222222-----------------------------------------------|
D-------22222222222222222222222222222222-----------------------------------------------|


Guitar 1:
E-xxxx---------------------------------------------------------------------------------|
B-xxxx---------------------------------------------------------------------------------|
G-xxxx---------------------------------------------------------------------------------|
D-xxxx--00000000000000000000000000000000--55555555555555555555555555555555-------------|
A-xxxx--00000000000000000000000000000000--55555555555555555555555555555555-------------|
D-xxxx--00000000000000000000000000000000--55555555555555555555555555555555-------------|

Guitar 2:
E-xxxx---------------------------------------------------------------------------------|
B-xxxx---------------------------------------------------------------------------------|
G-xxxx---------------------------------------------------------------------------------|
D-xxxx--00000000000000000000000000000000--55555555555555555555555555555555-------------|
A-xxxx--00000000000000000000000000000000--55555555555555555555555555555555-------------|
D-xxxx--00000000000000000000000000000000--55555555555555555555555555555555-------------|


Guitar 1:
E-xxxx---------------------------------------------------------------------------------|
B-xxxx---------------------------------------------------------------------------------|
G-xxxx---------------------------------------------------------------------------------|
D-xxxx--22222222222222222222222222222222--55555555555555555555555555555555-------------|
A-xxxx--22222222222222222222222222222222--55555555555555555555555555555555-------------|
D-xxxx--22222222222222222222222222222222--55555555555555555555555555555555-------------|

Guitar 2:
E-------------------------------------------2---2---2---2---2---2---2h3333-------------|
B---------------------------------------------3---3---3---3---3---3--------------------|
G--------------------------------------------------------------------------------------|
D-------22222222222222222222222222222222-----------------------------------------------|
A-------22222222222222222222222222222222-----------------------------------------------|
D-------22222222222222222222222222222222-----------------------------------------------|


Interlude:


Guitar 1:
E------------------------------------------------------------------------|
B------------------------------------------------------------------------|
G------------------------------------------------------------------------|
D-------0~~~~-----------------------------5~~~~--------------------------|
A-------0~~~~-----------------------------5~~~~--------------------------|
D-------0~~~~-----------------------------5~~~~--------------------------|

Guitar 2:
E------------------------------------------------------------------------|
B------------------------------------------------------------------------|
G------------------------------------------------------------------------|
D-------0~~~~-----------------------------5~~~~--------------------------|
A-------0~~~~-----------------------------5~~~~--------------------------|
D-------0~~~~-----------------------------5~~~~--------------------------|


Guitar 1:
E------------------------------------------------------------------------|
B------------------------------------------------------------------------|
G------------------------------------------------------------------------|
D-------0~~~~-----------------------------5~~~~--------------------------|
A-------0~~~~-----------------------------5~~~~--------------------------|
D-------0~~~~-----------------------------5~~~~--------------------------|

Guitar 2:
E------------------------------------------------------------------------|
B------------------------------------------------------------------------|
G------------------------------------------------------------------------|
D-------0~~~~-----------------------------5~~~~--------------------------|
A-------0~~~~-----------------------------5~~~~--------------------------|
D-------0~~~~-----------------------------5~~~~--------------------------|

("So Let Me Drown So I Can Breathe Again..")

Guitar 1:
E------------------------------------------------------------------------|
B------------------------------------------------------------------------|
G------------------------------------------------------------------------|
D----------0~~~~---------------------------------------------------------|
A----------0~~~~---------------------------------------------------------|
D----------0~~~~---------------------------------------------------------|

Guitar 2:
E--------------------------------------------------------------------------------|
B------3--------3--------3--------3---------3--------3--------3--------3---------|
G----0--0-0---0--0-0---0--0-0---0--0-0----0--0-0---0--0-0---0--0-0---0--0-0------|
D---0-0--0---0-0--0---0-0--0---0-0--0----0-0--0---0-0--0---0-0--0---0-0--0-------|
A--------------------------------------------------------------------------------|
D--0--------0--------0--------0---------5--------5--------5--------5-------------|

Guitar 1: (Silent)

Guitar 2:
E--------------------------------------------------------------------------------|
B------3--------3--------3--------3---------3--------3--------3-----3~-----------|
G----0--0-0---0--0-0---0--0-0---0--0-0----0--0-0---0--0-0---0--0-0--2~-----------|
D---0-0--0---0-0--0---0-0--0---0-0--0----0-0--0---0-0--0---0-0--0---0~-----------|
A-------------------------------------------------------------------0~-----------|
D--0--------0--------0--------0---------5--------5--------5----------------------|

...................................................................................


Guitar 1: (Palm Mute Every Note Played Here)
E--------------------------------------------------------------------------------|
B--------------------------------------------------------------------------------|
G--------------------------------------------------------------------------------|
D--00000000000000000000000000000000000--55555555555555555555555555555555555------|
A--00000000000000000000000000000000000--55555555555555555555555555555555555------|
D--00000000000000000000000000000000000--55555555555555555555555555555555555------|

Guitar 2:
E--------------------------------------------------------------------------------|
B------3--------3--------3--------3---------3--------3--------3--------3---------|
G----0--0-0---0--0-0---0--0-0---0--0-0----0--0-0---0--0-0---0--0-0---0--0-0------|
D---0-0--0---0-0--0---0-0--0---0-0--0----0-0--0---0-0--0---0-0--0---0-0--0-------|
A--------------------------------------------------------------------------------|
D--0--------0--------0--------0---------5--------5--------5--------5-------------|

Guitar 1: (Palm Mute Every Note Played Here)
E--------------------------------------------------------------------------------|
B--------------------------------------------------------------------------------|
G--------------------------------------------------------------------------------|
D--00000000000000000000000000000000000--5555555555555555555555-------------------|
A--00000000000000000000000000000000000--5555555555555555555555--Pick Scrape------|
D--00000000000000000000000000000000000--5555555555555555555555-------------------|

Guitar 2:
E--------------------------------------------------------------------------------|
B------3--------3--------3--------3---------3--------3--------3--------3---------|
G----0--0-0---0--0-0---0--0-0---0--0-0----0--0-0---0--0-0---0--0-0---0--0-0------|
D---0-0--0---0-0--0---0-0--0---0-0--0----0-0--0---0-0--0---0-0--0---0-0--0-------|
A--------------------------------------------------------------------------------|
D--0--------0--------0--------0---------5--------5--------5--------5-------------|

Guitar 1:
E--------------------------------------------------------------------------------|
B--------------------------------------------------------------------------------|
G--------------------------------------------------------------------------------|
D--00000000000000000000000000000000000--55555555555555555555555555555555555------|
A--00000000000000000000000000000000000--55555555555555555555555555555555555------|
D--00000000000000000000000000000000000--55555555555555555555555555555555555------|

Guitar 2:
E--------------------------------------------------------------------------------|
B------3--------3--------3--------3---------3--------3--------3--------3---------|
G----0--0-----0--0-----0--0-----0--0------0--0-----0--0-----0--0-----0--0--------|
D--------------------------------------------------------------------------------|
A--------------------------------------------------------------------------------|
D--------------------------------------------------------------------------------|


Guitar 1:
E--------------------------------------------------------------------------------|
B--------------------------------------------------------------------------------|
G--------------------------------------------------------------------------------|
D--00000000000000000000000000000000000--55555555555555555------------------------|
A--00000000000000000000000000000000000--55555555555555555-("Spill The Ink"..)----|
D--00000000000000000000000000000000000--55555555555555555------------------------|

Guitar 2:
E--------------------------------------------------------------------------------|
B------3--------3--------3--------3---------3--------3---------------------------|
G----0--0-----0--0-----0--0-----0--0------0--0-----0--0---("Spill The Ink"..)----|
D--------------------------------------------------------------------------------|
A--------------------------------------------------------------------------------|
D--------------------------------------------------------------------------------|

Guitar 1:
E--------------------------------------------------------------------------------|
B--------------------------------------------------------------------------------|
G--------------------------------------------------------------------------------|
D--00000000000000000000000000000000000--55555555555555555555555555555555555------|
A--00000000000000000000000000000000000--55555555555555555555555555555555555------|
D--00000000000000000000000000000000000--55555555555555555555555555555555555------|

Guitar 2:
E-------------------------------------------2---2---2---2---2---2---2h33333------|
B---------------------------------------------3---3---3---3---3---3--------------|
G--------------------------------------------------------------------------------|
D--00000000000000000000000000000000000-------------------------------------------|
A--00000000000000000000000000000000000-------------------------------------------|
D--00000000000000000000000000000000000-------------------------------------------|


Guitar 1:
E--------------------------------------------------------------------------------|
B--------------------------------------------------------------------------------|
G--------------------------------------------------------------------------------|
D--00000000000000000000000000000000000--5555555555555555555555555555555555-0~----|
A--00000000000000000000000000000000000--5555555555555555555555555555555555-0~----|
D--00000000000000000000000000000000000--5555555555555555555555555555555555-0~----|

Guitar 2:
E-------------------------------------------2---2---2---2---2---2---2h333--------|
B---------------------------------------------3---3---3---3---3---3--------3~----|
G--------------------------------------------------------------------------2~----|
D--00000000000000000000000000000000000-------------------------------------0~----|
A--00000000000000000000000000000000000-------------------------------------0~----|
D--00000000000000000000000000000000000-------------------------------------------|


FINISHED. There Are Quite A Few Differences In That From Version 1 Actually.
I Made It A Little Bit Over Complicated But That's It, In Full.
If You Have Any Possible Corrections For The Chorus Guitar 1 Email
Me: "rupertthepinkelephant@hotmail.com"


| /  slide up
| \  slide down
| h  hammer-on
| p  pull-off
| ~  vibrato
| +  harmonic
| x  Mute note
============================================================================