Hidden In Plain View - I Dont Want To Hear It Text Guitar Tab

Learn song with the online tabulature player
Drop-D
This is only guitar 1, sorry. Might edit it later with guitar 2.

Intro:
e|-------------------------|
B|-------------------------|
G|-------------------------|
D|-0~~--5-5-----0-9-4-5----|
A|-0~~--5-5-----0-9-4-5----|
D|-0~~--5-5-----0-9-4-5----|

Verse:
e|---------------------------------------------|
B|---------------------------------------------|
G|---------------------------------------------|
D|-0-4-5---0-7-7---0-4-5--4-5-2-0---x2---5-7---|
A|-0-4-5---0-7-7---0-4-5--4-5-2-0--------5-7---|
D|-0-4-5---0-7-7---0-4-5--4-5-2-0--------5-7---|
note: second time around there's no open D before the G and A at the end.

Chorus:
e|---------------------------------------------|
B|---------------------------------------------|
G|---------------------------------------------|
D|--0-9-4-5--0-4-5---0-7-7---0-4-5--4-5-2-0----|
A|--0-9-4-5--0-4-5---0-7-7---0-4-5--4-5-2-0----|
D|--0-9-4-5--0-4-5---0-7-7---0-4-5--4-5-2-0----|

Verse 2:
e|-----------------------|
B|-----------------------|
G|-----------12-11-------|
D|------12---12----12----|
A|-12---12---12----------|
D|-12---12---12----------|
palm mute.....

e|----------------------------------------------------|
B|----------------------------------------------------|
G|----------------------------------------------------|
D|-0-4-5---0-7-7---0-4-5--4-5-2-0-----5---7---5---7---|
A|-0-4-5---0-7-7---0-4-5--4-5-2-0-----5---7---5---7---|
D|-0-4-5---0-7-7---0-4-5--4-5-2-0-----5---7---5---7---|

Chorus:
e|---------------------|
B|---------------------|
G|---------------------|
D|--0-9-4-5--0-9-4-5---|
A|--0-9-4-5--0-9-4-5---|
D|--0-9-4-5--0-9-4-5---|

Bridge:
e|---------------------------------------|
B|---------------------------------------|
G|---------------------------------------|
D|--0-4-5---0-4-5--0-4-5----0-4-5---0----|
A|--0-4-5---0-4-5--0-4-5----0-4-5---0----|
D|--0-4-5---0-4-5--0-4-5----0-4-5---0----|


Outro Chorus:
e|---------------------------------------------|
B|---------------------------------------------|
G|---------------------------------------------|
D|--0-9-4-5---0-9-4-5--0-0-0----0-0-0----0-----|
A|--0-9-4-5---0-9-4-5--0-0-0----0-0-0----0-----|
D|--0-9-4-5---0-9-4-5--0-0-0----0-0-0----0-----|