Hidden In Plain View - Like An Ocean Text Guitar Tab

Learn song with the online tabulature player
Drop-D
Mostly guitar 1. Guitar 2 is mostly octaves of the chords.

Intro/Verse:
e|-----------------------------|
B|-----------------------------|
G|-13-6-13-6-5-6-8-5-----------|
D|-13-4-13-4-3-4-6-6---3-4-6---|
A|-11-4-11-4-3-4-6-6---3-4-6---|
D|-11-4-11-4-3-4-6-6---3-4-6---|

Chorus:
[Guitar 1]
e|--------------------------|
B|--------------------------|
G|--------------------------|
D|-11-4-6-4----11-4-11-4----|
A|-11-4-6-4----11-4-11-4----|
D|-11-4-6-4----11-4-11-4----|

[Guitar 2]
e|--------------------------------------------------------------|
B|-----------14-14-14-------------------------------------------|
G|--------------------------------------10/11\10-10-10----------|
D|--15-15-15---------13-13-13-11-11-11--------------------x3----|
A|--------------------------------------------------------------|
D|--------------------------------------------------------------|

e|---------------------------------------------------------|
B|-----------14-14-14--------------------------------------|
G|-11-11-11-----------13-13-13-11-11-11-10/11\10/11\10-----|
D|---------------------------------------------------------|
A|---------------------------------------------------------|
D|---------------------------------------------------------|

Verse 2:
e|------------------------------------|
B|------------------------------------|
G|-13-6-13-6-5-6-8--------------------|
D|-13-4-13-4-3-4-6----3-4-6--3-4-6----|
A|-11-4-11-4-3-4-6----3-4-6--3-4-6----|
D|-11-4-11-4-3-4-6----3-4-6--3-4-6----|

Chorus:
[Guitar 1]
e|-------------------------|
B|-------------------------|
G|-------------------------|
D|-11-4-6-4----11-4-6-4----|
A|-11-4-6-4----11-4-6-4----|
D|-11-4-6-4----11-4-6-4----|

[Guitar 2]
e|--------------------------------------------------------------|
B|-----------14-14-14-------------------------------------------|
G|--------------------------------------10/11\10-10-10----------|
D|--15-15-15---------13-13-13-11-11-11--------------------x3----|
A|--------------------------------------------------------------|
D|--------------------------------------------------------------|

e|---------------------------------------------------------|
B|-----------14-14-14--------------------------------------|
G|-11-11-11-----------13-13-13-11-11-11-10/11\10/11\10-----|
D|---------------------------------------------------------|
A|---------------------------------------------------------|
D|---------------------------------------------------------|

Bridge:
e|-------------------------------------------|
B|-------------------------------------------|
G|-------------------------------------------|
D|--3-4-6-6--3-4-6-6--3-4-6-6--3-4-6-6---11--|
A|--3-4-6-6--3-4-6-6--3-4-6-6--3-4-6-6---11--|
D|--3-4-6-6--3-4-6-6--3-4-6-6--3-4-6-6---11--|

Outro Chorus:
e|-------------------------------------------|
B|-------------------------------------------|
G|-------------------------------------------|
D|-11-4-6-4----11-4-6-4----11---11---11------|
A|-11-4-6-4----11-4-6-4----11---11---11------|
D|-11-4-6-4----11-4-6-4----11---11---11------|


[Guitar 2]
e|--------------------------------------------------------------|
B|-----------14-14-14-------------------------------------------|
G|--------------------------------------10/11\10-10-10----------|
D|--15-15-15---------13-13-13-11-11-11--------------------x3----|
A|--------------------------------------------------------------|
D|--------------------------------------------------------------|

e|---------------------------------------------------------|
B|-----------14-14-14--------------------------------------|
G|-11-11-11-----------13-13-13-11-11-11-10/11\10/11\10-----|
D|---------------------------------------------------------|
A|---------------------------------------------------------|
D|---------------------------------------------------------|