High School Musical - Can I Have This Dance Text Guitar Tab

Learn song with the online tabulature player
High School Musical- Can I have this Dance
Tabbed by: Shawn Sy
Email: 24.3e.shawnsy@gmail.com

Intro: 
          C                     G                     F                    G
E|---------------------|---------------------|---------------------|---------------------|
B|-------1---------1---|-------1---------1---|-------1---------1---|-------1---------1---|
G|-----0---0-----0---0-|-----0---0-----0---0-|-----0---0-----0---0-|-----0---0-----0---0-|
D|---2---------2-------|---0---------0-------|---0---------0-------|---0---------0-------|
A|-3---------3---------|-2---------2---------|---------------------|---------------------|
E|---------------------|---------------------|-1---------1---------|-3---------3---------|

Verse:
          C                     G                     F                   G 
E|---------------------|---------------------|---------------------|---------------------|
B|-------1---------1---|-------1---------1---|-------1---------1---|-------1---------1---|
G|-----0---0-----0---0-|-----0---0-----0---0-|-----0---0-----0---0-|-----0---0-----0---0-|
D|---2---------2-------|---0---------0-------|---0---------0-------|---0---------0-------|
A|-3---------3---------|-2---------2---------|---------------------|---------------------|
E|---------------------|---------------------|-1---------1---------|-3---------3---------|
          C                     G                     F                   G
E|---------------------|---------------------|---------------------|---------------------|
B|-------1---------1---|-------1---------1---|-------1---------1---|-------1---------1---|
G|-----0---0-----0---0-|-----0---0-----0---0-|-----0---0-----0---0-|-----0---0-----0---0-|
D|---2---------2-------|---0---------0-------|---0---------0-------|---0---------0-------|
A|-3---------3---------|-2---------2---------|---------------------|-2---------2---------|
E|---------------------|---------------------|-1---------1---------|---------------------|

Pre-Chorus
          Am                     G                     Am                  F
E|---------------------|---------------------|---------------------|---------------------|
B|-------1---------1---|-------1---------1---|-------1---------1---|-------1---------1---|
G|-----2---2-----0---0-|-----0---0-----0---0-|-----2---2-----2---2-|-----0---0-----0---0-|x2
D|---2---------2-------|---0---------0-------|---2---------2-------|---0---------0-------|
A|-0---------3---------|---------------------|-0---------0---------|---------------------|
E|---------------------|-3---------3---------|---------------------|-1---------1---------|
                                                                    (You can strum this)

Chorus:
   C                             G                    Am        G      
It's like catching lightning the chances of finding someone like you
   C                       G                      Am     G
It's one in a million, the chances of feeling the way we do
Am              G              Am             G       
And with every step together, we just keep on getting better
F                                         G
So can I have this dance (can I have this dance)
C
Can I have this dance

Repeat Verse

Repeat Chorus

Bridge:
    A#m                          F
Oh, no mountains too high enough, oceans too wide
    G                   C
'Cause together or not, our dance won't stop
    A#m                   F
Let it rain, let it pour, what we have is worth fighting for
    Am                   G
You know I believe, that we were meant to be

Last Chorus
   (No guitar)                        G                    Am        G      
It's like catching lightning the chances of finding someone like you
   C                       G                      Am     G
It's one in a million, the chances of feeling the way we do
Am              G              Am             G       
And with every step together, we just keep on getting better
F                                         G
So can I have this dance (can I have this dance)
C
Can I have this dance
      F               G
Can I have this dance
      C
Can I have this dance