High School Musical - What Ive Been Looking For Text Guitar Tab

Learn song with the online tabulature player
+++++++++++++++++++++++++++++++++++++++++++++++++++
| High School Musical- What I've Been Looking For |
+++++++++++++++++++++++++++++++++++++++++++++++++++


"This feeling's like no other..."

Tuning: EADG


Verse
"Its hard to believe..."
1.
G|------------------------------------------------------------------|
D|------------------------------------------------------------------|
A|-0-0-0-4-5-5-5-4-2-2-2-2----------0-0-0-4-5-5-5-4-2-2-2-2---------|
E|-------------------------0-0-0-0-2------------------------0-0-0-0-|

Pre-Chorus
"This feeling's like no other..."
2.
G|---------------------------------|
D|---------------------------------|
A|-2-2-2-2---------2-2-2-2---------|
E|---------0-0-0-0---------0-0-0-0-|

Chorus
"I've never had someone that knows me like you do..."
3.
G|-----------------------------------------------------------------|
D|-----------------------------------------------------------------|
A|---------0-0-0-4-5-5-5-5-----------------0-0-0-4-5-5-5-5---------|
E|-2-2-2-4-----------------0-0-0-1-2-2-2-4-----------------0-0-0-0-|

"So lonely before I finally found..."
4.
G|-----------------------------------|
D|-----------------------------------|
A|-5-5-5-4-2-2-2-2-------------------|
E|-----------------0-0-0-0-0~--------|

Outro
5.
G|---------------------------------|
D|---------------------------------|
A|-0-0-0-4-5-5-5-4-2-2-2-2---------|
E|-------------------------0-0-0-0-|

Verse
"So good to be seen, so good to be heard..."
6.
G|-------------------------------------------------------------|
D|---------------------------------------------------2~--------|
A|-5-5-4-4-2-2-0-0-------0~----5-5-4-4-2-2-0-0-----------------|
E|-----------------3~--------------------------3~--------------|

Pre-Chorus
"This feeling's like no other..."
7.
G|---------------------------------|
D|---------------------------------|
A|-2x----2---------2-2-2-2---------|
E|---------0x----0---------0-0-0-0-|

Chorus
"I've never had someone that knows me like you do..."
8.
G|-----------------------------------------------------------------|
D|-----------------------------------------------------------------|
A|---------0-0-0-4-5-5-5-5-----------------0-0-0-4-5-5-5-5---------|
E|-2-2-2-4-----------------0-0-0-1-2-2-2-4-----------------0-0-0-0-|

"So lonely before I finally found..."
9.
G|-----------------------------------|
D|-----------------------------------|
A|-5-5-5-4-2-2-2-2-------------------|
E|-----------------0-0-0-0-0~--------|

Outro
"Doo doo doo..."
10.
G|------------------------------------------------------------------|
D|------------------------------------------------------------------|
A|-0-0-0-4-5-5-5-4-2-2-2-2----------0-0-0-4-5-5-5-4-2-2-2-2---------|
E|-------------------------0-0-0-0-2------------------------0-0-0-0-|

11.
G|-----------------------------------|
D|-----------------------------------|
A|-5~--4~--2~--0~--------------------|
E|-----------------3~----------------|


Lyrics:


Its hard to believe
That I couldnt see 
You were always there beside me

Thought I was alone
With no one to hold
But you were always right beside me

This feeling's like no other
I want you to know

I've never had someone that knows me like you do
The way you do
I've never had someone as good for me as you
No one like you
So lonely before, I finally found
What I've been looking for

So good to be seen
So good to be heard
Dont have to say a word

So long I was lost
So good to be found
Im loving having you around



+++++++++++++++++++++++++++++++++
| RaiLeff                       |
| Underground__Dora@Hotmail.Com |
+++++++++++++++++++++++++++++++++