Hilary Duff - Come Clean Text Guitar Tab

Learn song with the online tabulature player
even though I'm not a huge Hilary Duff fan, this acoustic riff from Come Clean is pretty cool.
Its heard lightly in the background behind the main melody (which u can get from one of the
other tabs). All the notes are 8th-notes and should ring out as you play them. after the F#sus
chord the drums come in and the electric guitar replaces the acoustic.





capo on 4th fret to match recording



   G#m7                                                              E(add9)
   let ring----------------------------------------------------------------------------------------|

e||---------3-------2-------2---3--|---------3-------2-------2---3--|---------3-------2-------2---3--|
B||---------------------3----------|---------------------3----------|---------------------3----------|
G||-----0-------0------------------|-----0-------0------------------|-----0-------0------------------|
D||-2------------------------------|-2------------------------------|--------------------------------|
A||--------------------------------|--------------------------------|-3------------------------------|
E||--------------------------------|--------------------------------|--------------------------------|




                                  G#m7
 let ring----------------------------------------------------------------------------------------|

|---------3-------2-------2---3--|---------3-------2-------2---3--|---------3-------2-------2---3--|
|---------------------3----------|---------------------3----------|---------------------3----------|
|-----0-------0------------------|-----0-------0------------------|-----0-------0------------------|
|--------------------------------|-2------------------------------|-2------------------------------|
|-3------------------------------|--------------------------------|--------------------------------|
|--------------------------------|--------------------------------|--------------------------------|





 E(add9)                                                           G#m7
 let ring----------------------------------------------------------------------------------------|

|---------3-------2-------2---3--|---------3-------2-------2---3--|---------3-------2-------2---3--|
|---------------------3----------|---------------------3----------|---------------------3----------|
|-----0-------0------------------|-----0-------0------------------|-----0-------0------------------|
|--------------------------------|--------------------------------|-2------------------------------|
|-3------------------------------|-3------------------------------|--------------------------------|
|--------------------------------|--------------------------------|--------------------------------|





                                  E(add9)                           F#sus4/A
 let ring----------------------------------------------------------------------------------------|

|---------3-------2-------2---3--|---------3-------2-------2---3--|--------------------------------|
|---------------------3----------|---------------------3----------|-----------------3---1----------|
|-----0-------0------------------|-----0-------0------------------|-----0---2---0-----------0---2--|
|-2------------------------------|--------------------------------|--------------------------------|
|--------------------------------|-3------------------------------|-0------------------------------|
|--------------------------------|--------------------------------|--------------------------------|