Hilary Duff - Inner Strength Text Guitar Tab

Learn song with the online tabulature player
here is the tabs that go with the words from Hilary Duff's song, Inner Strength. It is 
first tab so please be nice XD >.< :P..
love:alina

INTRO :]
Guitar 1
e----------------------------------------------------------------------|
b----------------------------------------------------------------------|
g----------------------------------------------------------------------|
d-1-0-1-------1-0-1-------1-0-1-------1-0-1----------------------------|
a----------------------------------------------------------------------|
E----------------------------------------------------------------------|

[Guitar 1 plays the intro throughout the whole entire song so im going to put up Guitar 
part...:p]

e----------------------------------------------------------------------|
b----------------------------------------------------------------------|
g----------------------------------------------------------------------|
d-1-1---1-----1---0-1---1----------------------------------------------|
a----------------------------------------------------------------------|
E----------------------------------------------------------------------|
  Gotta Find Your Inner Strength

e----------------------------------------------------------------------|
b----------------------------------------------------------------------|
g----------------------------------------------------------------------|
d-1--1--1------1-----1---1-----0----1-1--------------------------------|
a----------------------------------------------------------------------|
E----------------------------------------------------------------------|
  If you can't then just throw life away.

e----------------------------------------------------------------------|
b----------------------------------------------------------------------|
g----------------------------------------------------------------------|
d-5-5---5-----5--5-3--3--5---------------------------------------------|
a----------------------------------------------------------------------|
E----------------------------------------------------------------------|
  Gotta learn to rely on you

e----------------------------------------------------------------------|
b----------------------------------------------------------------------|
g----------------------------------------------------------------------|
d-5-5-----5-5-------5---3-5----1---------------------------------------|
a----------------------------------------------------------------------|
E----------------------------------------------------------------------|
  Beauty, Strength, and Wisdom too

e----------------------------------------------------------------------|
b----------------------------------------------------------------------|
g----------------------------------------------------------------------|
d-1-----1-1-1-----1-0----1---1-----------------------------------------|
a----------------------------------------------------------------------|
E----------------------------------------------------------------------|
 You're beautiful inside and out

e----------------------------------------------------------------------|
b----------------------------------------------------------------------|
g----------------------------------------------------------------------|
d----------------------------------------------------------------------|
a-1----1-1-----1----3---0---1-1----------------------------------------|
E----------------------------------------------------------------------|
  Lead a great life without a doubt

e----------------------------------------------------------------------|
b----------------------------------------------------------------------|
g----------------------------------------------------------------------|
d-5-----5---5--5---5--3----3------5------------------------------------|
a----------------------------------------------------------------------|
E----------------------------------------------------------------------|
  Don't need a man to make things fair,

e----------------------------------------------------------------------|
b----------------------------------------------------------------------|
g----------------------------------------------------------------------|
d-5----5----5----5---5--5--3-----5--1----------------------------------|
a----------------------------------------------------------------------|
E----------------------------------------------------------------------|
  'Cuz more than likely he won't be there.

e----------------------------------------------------------------------|
b----------------------------------------------------------------------|
g----------------------------------------------------------------------|
d-1--1---1----1----1--1--0----1----1-----------------------------------|
a----------------------------------------------------------------------|
E----------------------------------------------------------------------|
  Listen girl, you gotta know it's true.

e----------------------------------------------------------------------|
b----------------------------------------------------------------------|
g----------------------------------------------------------------------|
d-1--1----1--1----1--0---1---1-----------------------------------------|
a----------------------------------------------------------------------|
E----------------------------------------------------------------------|
  In the end all you got is you.

thank you all for checking out my tab! ur awesome ppl. lol just rate and comment if 
is possible.. lol
-peace-