Hilary Duff - Whos That Girl Text Guitar Tab

Learn song with the online tabulature player
----------------------------------------------------------------------------
                             Who's That Girl? - Hilary Duff
----------------------------------------------------------------------------
Tabbed by: Crystal
Email: crystal_girl@hotmail.com

This is almost 100% correct. I figured this out and it sound just like the real
thing if you play it with the song! I haven't figured out the chorus, though.
Have fun!

Tuning: Standard

Intro:
e|------6-5------5-3------3-1-----------|
B|---------------------------------3----|
G|----7--------5--------3--------5---5--|
D|--5--------3--------1--------3--------|
A|--------------------------------------|
E|--------------------------------------|

Intro (continued):
e|------6-5------5-3----1--|
B|----------------------1--|
G|----7--------5--------3--|
D|--5--------3----------1--|
A|-------------------------|
E|-------------------------|

Verse:
e|------6-5------5-3------3-1-----------|
B|---------------------------------3----|
G|----7--------5--------3--------5---5--| (play 3 times)
D|--5--------3--------1--------3--------| 
A|--------------------------------------|
E|--------------------------------------|

Verse (continued):
e|------6-5------5-3----1--|
B|----------------------1--|
G|----7--------5--------3--|
D|--5--------3----------1--|
A|-------------------------|
E|-------------------------|

NOTE: The verse is the exact same thing as the intro!

I hope you enjoy it!!! Peace out.