Hilera - Mahirap Magmahal Ng Syota Ng Iba Text Guitar Tab

Learn song with the online tabulature player
donated by: francis
f_sario@yahoo.com 
Lucena,Phils...
f_sario@yahoo.com
Cp #-09283150081
SHC(BSN) Lucena
http://profiles.friendster.com/37158911

 hi! june anne!


(#)=angat ng konti
h=pukpok
*=palm mute
x=patay na tali
b or ^=banat
~=bayaing tumunog

Guitar tune-(e b g d A E)

Intro-


                                        tsk...tsk...tsk.....
|---------------------------------------------------------------|
|---------------------------------------------------------------|
|-x-xx-9/10-10-10/11-11-11/12-12-----5~-------------------------|
|-x-xx-x-x--x--x--x--x--x---x-x------5~-------------------------|
|-x-xx-7/8--8--8-/9--9--9-/10-10-----3~-------------------------|
|---------------------------------------------------------------|



Verse2-

|------1---------|----------x--x--x-|0h1---5p3-1-x--|-----3-----------|
|------1-1-(1)-1-|2-----2---2-(2)-2-|3---------3-3--|-----3--3-(3)-3--|
|--2h4-2-2-(2)-2-|0-2h4-0---0-(0)-0-|2-----------2--|-3h4-4--4-(4)-4--|
|-3--------------|2---------2-(2)-2-|0--------------|5----------------|
|-3--------------|0---------x--x--x-|---------------|5----------------|
|-1--------------|------------------|---------------|3----------------|
  *               *                  *               *
|---------------------3------------------------------------|
|---------------------3--3-(3)-3-------3-(3)-3-------------|
|-----------------3h4-4--4-(4)-4---3h3-4-(4)-4--3~---------|
|-3-33--4-44--5-------------------5-------------3~--pause--|
|-3-33--4-44--5-------------------5-------------1~---------|
|-1-11--2-22--3-------------------3------------------------|
  *  *  *  *  *                   *         
Verse2-

|------1---------|----------x--x--x-|0h1---5p3-1-x--|-----3-----------|
|------1-1-(1)-1-|2-----2---2-(2)-2-|3---------3-3--|-----3--3-(3)-3--|
|--2h4-2-2-(2)-2-|0-2h4-0---0-(0)-0-|2-----------2--|-3h4-4--4-(4)-4--|
|-3--------------|2---------2-(2)-2-|0--------------|5----------------|
|-3--------------|0---------x--x--x-|---------------|5----------------|
|-1--------------|------------------|---------------|3----------------|
  *               *                  *               *
|---------------------3-------------------------------------|
|---------------------3--3-(3)-3-------3-(3)-3--------------|
|-----------------3h4-4--4-(4)-4---3h3-4-(4)-4--3333333333~-|
|-3-33--4-44--5-------------------5-------------3333333333~-|
|-3-33--4-44--5-------------------5-------------1111111111~-|
|-1-11--2-22--3-------------------3-------------------------|
  *  *  *  *  *                   *   

Chorus-
|---------------------------------|----------------------|
|---------------------------------|----------------------|
|---------------------------------|----------------------|
|-8-x-8-x-8-x-8-x-8-x-8-x-8-x-8---|-3------x333333-------|
|-8-x-8-x-8-x-8-x-8-x-8-x-8-x-8---|-3-hold-x333333-------|
|-6-x-6-x-6-x-6-x-6-x-6-x-6-x-6---|-1------x111111-------|


|---------------------------------|----------------------|
|---------------------------------|----------------------|
|---------------------------------|----------33333333333-|
|-8-x-8-x-8-x-8-x-8-x-8-x-8-x-8---|--5-5-5-5-33333333333-|
|-8-x-8-x-8-x-8-x-8-x-8-x-8-x-8---|--5-5-5-5-11111111111-|
|-6-x-6-x-6-x-6-x-6-x-6-x-6-x-6---|--3-3-3-3-------------|



Verse3-
|------1---------|----------x--x--x-|0h1---5p3-1-x--|-----3-----------|
|------1-1-(1)-1-|2-----2---2-(2)-2-|3---------3-3--|-----3--3-(3)-3--|
|--2h4-2-2-(2)-2-|0-2h4-0---0-(0)-0-|2-----------2--|-3h4-4--4-(4)-4--|
|-3--------------|2---------2-(2)-2-|0--------------|5----------------|
|-3--------------|0---------x--x--x-|---------------|5----------------|
|-1--------------|------------------|---------------|3----------------|
  *               *                  *               *
|---------------------3-------------------------------------|
|---------------------3--3-(3)-3-------3-(3)-3--------------|
|-----------------3h4-4--4-(4)-4---3h3-4-(4)-4--3333333333~-|
|-3-33--4-44--5-------------------5-------------3333333333~-|
|-3-33--4-44--5-------------------5-------------1111111111~-|
|-1-11--2-22--3-------------------3-------------------------|
  *  *  *  *  *                   *   



Solo-
Not sure

|-10^---------------------------------------------------|
|-13^--13-11-13-----------------------13b--13^11--------|
|---------------14---10-------8^10----------------------|
|----------------------12-10----------------------------|
|-------------------------------------------------------|
|-------------------------------------------------------|

|----11-10-------------------------------------------------------------|
|-13-------13---11-10------------------------9-9-9--101010-11111114----|
|---------------------13----10-8----10-8-----101010-111111-12121213----|
|--------------------------------10------10----------------------------|
|----------------------------------------------------------------------|
|----------------------------------------------------------------------|

|------------15-14~---14---------------------------------|
|--------13-----------------13--11---13--11---13--11-----|
|10^11-11-----------------10--------10------10-------10--|
|--------------------------------------------------------|
|--------------------------------------------------------|
|--------------------------------------------------------|

|----------------------------------------------------------------|
|--9-9-9--101010-111111-121212-131313-141414-151515-16-----------|
|--101010-111111-121212-131313-141414-151515-161616-17-----------|
|----------------------------------------------------------------|
|----------------------------------------------------------------|
|----------------------------------------------------------------|


Verse-4


|------------|-------------|---------------|-----------------|
|------------|-------------|---------------|-----------------|
|------------|-------------|---------------|-----------------|
|------------|-------------|---------------|-----------------|
|------------|-------------|---------------|-----------------|
|------------|-------------|---------------|-----------------|


|---------------------3-------------------------------------|
|---------------------3--3-(3)-3-------3-(3)-3--------------|
|-----------------3h4-4--4-(4)-4---3h3-4-(4)-4--3333333333~-|
|-3-33--4-44--5-------------------5-------------3333333333~-|
|-3-33--4-44--5-------------------5-------------1111111111~-|
|-1-11--2-22--3-------------------3-------------------------|
  *  *  *  *  *                   *   


last Verse- verse with strumming and 1fret higher
F# A#7 D#m7 G#7 F# Gdim G#m  G#m   Bb-A#m  


 Bridge 0utro

|-4--4^-4-444-------------------------------------|
|-4--4^-4-444-------------------------------------|
|-4--4^-4-444-------------------------------------|
|-6--6^-6-666----8-8-8-8-8-8-8-8-8----------------|2x
|-6--6--6-666----8-8-8-8-8-8-8-8-8----------------|
|-4--4--4-444----6-6-6-6-6-6-6-6-6----------------|



|-4--4^-4-444--------|--------|-------------------|
|-4--4^-4-444--------|--------|-------------------|
|-4--4^-4-444--3-----|--------|333333333-----3----|
|-6--6^-6-666--4-----|--------|444444444-----4----|end
|-6--6^-6-666--4-h0ld|--------|444444444-----4----|
|-4--4--4-444--2-----|--------|222222222-----2----|



Intro: F-F#-G-C  


Verse 1 

 F                            A7
Mahirap talagang magmahal ng syota ng iba,
 Dm7                       G
Hindi mo mabisita kahit na okey sa kanya;
   F5    F#5  G 
Mahirap! Oh, mahirap talaga,
   Gm                  Bb5
Maghanap na lang kaya ng iba;


Verse 2 

         F                     A7
kapag aking makita ang kanyang mga mata,
  Dm7                 G
Nawawala ang aking pagkadismaya;
      F5           F#5  G5
Sige lang, sugod lang,   o bahala na!
       Gm7                   Bb5
Bahala na kung magkabistuhan pa.


Chorus-


  Bb5
I dial mo ang number sa telepono,
        F5(pause)                   
Huwag mong ibigay ang tunay na pangalan mo;
     Bb5
Pag nakausap mo sya sasabihin sayo,
  G5                       Bb5      
Tumawag ka mamaya nanditong s'yota ko,



Verse 3


  F                      A7
Mahirap talaga ang magmahal ng iba
Dm7                  G
O, sakit ng ulo, maniwala ka;
       F    F#dim        G
Ngunit kahit ano pang sabihin nila,
       Gm               C
Iwanan siya'y di ko magagawa


solo-dO cHORUS


vERSE- 
 F                            A7
Mahirap talagang magmahal ng syota ng iba,
 Dm7                      G7
Hindi mo mabisita kahit na okey sa kanya;



   F5    F#5   G
Mahirap! Oh, mahirap talaga,
   Gm7                  Bb5
Maghanap na lang kaya ng iba


last verse-

F#         A#7
Mahirap humanap ng iba,
D#m7             G#7
O, sakit ng ulo, maniwala ka;
       F#     Gdim        G#m
Ngunit kahit ano pang sabihin nila,
        G#m            C#
Iwanan siya'y di ko magagawa.

Coda:
      G#m              Bbm
Iwanan siya'y di ko magagawa,
         G#m           Bbm
Iwanan siya'y di ko magagawa,
         G#m             F#              F#
Iwanan siya'y di ko magagawa         YEAAAHHHH.. AWW WOOOOOOHHHHH....