Hilera - Pot Of Gold Text Guitar Tab

Learn song with the online tabulature player
Artist:Hilera
Song:Pot of Gold
Album:Hilera
Tabbed by: Ram Red (09196228339)
Email:alexisonfire066@yahoo.com

. - palm mute
x - dead string
/ - slide
~ - let it ring
b - bend
() - Ghost Note

Please Red: Kayo na bahala sa strumming.. and muting pattern mhaba kc pg nilgay sa 
beat ung pattern sbayan nu nlng ung drums..Yung ghost note bali strum lng ng mahina

Standard Tuning
Gtr 1 
e|------------------------------         --------------------|
B|------------------------------         --------------------|  
G|------------------------------         ----5---(5)-5--7----|
D|-13-13-13-13-6-6-6-6/8-8-8-8-- 4x then ---6--(6)---6--8----|
A|-13-13-13-13-6-6-6-6/8-8-8-8--         --6---------6--8----|
E|-11-11-11-11-4-4-4-4/6-6-6-6--         -4----------4--6----|
   .  .  .  .  . . . . . . . .

Gtr 1 Who wrote the rules that God made
e|----------------------------------------          --------------------------|
B|----------------------------------------          --------------------------|
G|----------------------------------------          --------------------------|
D|-1313131313131313-x-66666666-/88888888-  3x then  1313131313131313--6~--8---|
A|-1131313131313133-x-66666666-/88888888-           1313131313131313--6~--8---|
E|-1111111111111111-x-44444444-/66666666-           1111111111111111--4~--6---|
   .   .   .   .    . . . .     . . . .              . . . . . . . .  
 
Chorus
Gtr 1 Do you know, do you know
e|-----------------------------------------         ---------------------------------|
B|-----------------------------------------         ---------------------------------|
G|-----------------------8~-888------------ 3x then ----------------------8~88888888-|
D|-10~-101010-x-6~-666-x-8~-888-x-8~888----         -10~101010-x-6~-666-x-8~88888888-|
A|-10~-101010-x-6~-666-x-6~-666-x-8~888----         -10~101010-x-6~-666-x-6~66666666-|
E|-8~--8-8-8--x-4~-444-x--------x-6~666----         -8~-8-8-8--x-4~-444-x------------|
       . . .       ...     ...

Do Verse Riff 2x
Repeat:Verse 1
Then Chorus

Bridge

Gtr 1
  know..oh..ohh.ohh..ohh
e|------------------------P-------------------------      --------------|     
B|------------------------A-------------------------      --------------|
G|------------------------U-------------------------      ----(7)--9~---|
D|-10--8--6--8--10--8--6--S--10--8--6--8--10~--8~--- Then ---(8)---10~--|
A|-10--8--6--8--10--8--6--E--10--8--6--8--10~--8~---      --(8)----10~--|
E|-8---6--4--6--8---6--4--D--8---6--4--6--8~---6~---      -(6)-----8~---|
   .   .  .  .  .   .  .     .   .  .  .
Gtr 1
e|--------------------------------------------------------------|
B|-x-8b-x-8b-x-8b-x-8b--x-4b-x-4b-x-4b-x-4b-x-6b-x-6b-x-6b-x-6b-|
G|--------------------------------------------------------------| Repeat 4x
D|--------------------------------------------------------------|
A|--------------------------------------------------------------|
E|--------------------------------------------------------------|

Then Chorus:Bass Solo (techno sounding)
G|-----------------------------------------|
D|-----------------------------------------|
A|-66666666-----------66666666-------------|
E|----------4444-6666----------4444-66666--|

Gtr 1 Enters
e|-------------------------|
B|-------------------------|
G|---------------7~--7~----|
D|-10--6--8--10--6~--8~----|
A|-10--6--8--10--6~--8~----|
E|-8---4--6--8---4~--6~----|
   .   .  .  .  

Repeat Chorus
Then Intro

Last Chord

e|--------|
B|--------|
G|--------|
D|-13-----|
A|-13-----|
E|-11-----|
   .

Lyrix

Who wrote the rules that God made?
Who made the signs that man made?
Who broke the window? Who ate the carpets?
Who said the end is near?

Do you know, do you know
The way to the pot of gold
How’ld you know, how’ld you know
That she’s worth waiting for
Now do you see how it will be
Do you know, do you know, do you know