Hilera - Rhyme Without Reason Text Guitar Tab

Learn song with the online tabulature player
Artist:Hilera
Song:Rhyme Without Reason
Tabbed by: Ram Red (09196228339)
           School:NSDAPS San Mateo Rizal
           Email:alexisonfire066@yahoo.com

. - palm mute
x - dead string
/ - slide
~ - let it ring

Standard Tuning

Intro pt 1
e|--------------------------------------|
B|--------------------------------------|
G|--6/8888/10101010--6/8888/10101010----|
D|--x xxxx--x-x-x-x--x xxxx--x-x-x-x----|
A|--4/6666/-8-8-8-8--4/6666/-8-8-8-8----|
E|--------------------------------------|

Intro pt 2
e|----------------------------------------------------|
B|----------------------------------------------------|
G|---------------8x-8x-8x-8x/10x-10x-10x-10x----------|
D|--8x-8x-8x-8x--8x-8x-8x-8x/10x-10x-10x-10x----------| Repeat 2x
A|--8x-8x-8x-8x--6x-6x-6x-6x/-8x--8x--8x--8x----------|
E|--6x-6x-6x-6x---------------------------------------|
    .  .  .  .   .  .  .  .   .   .   .   .
Verse
 Stuck in a....
                                                   DISTORTION ON~
e|------------------------------------------------ -----------------|
B|------------------------------------------------ -----------------|
G|-------------------8-8-8-8/10-10-10-10---------- --8888/5555------|
D|--8-8-8-8-8-8-8-8--8-8-8-8/10-10-10-10--8-8-8-8- --8888/5555------|
A|--8-8-8-8-8-8-8-8--6-6-6-6/-8--8--8--8--8-8-8-8- --6666/3333------|
E|--6-6-6-6-6-6-6-6-----------------------6-6-6-6- -----------------|
    . . . . . . . .  . . . .  .  .  .  .  . . . .

Chorus
Rhyme...Rhhhyyyymmeee...  Without reason
e|-------------------------------------------|
B|-------------------------------------------|
G|-------------88888888--10101010------------|
D|--88888888---88888888--10101010------------| REPEAT 4x
A|--88888888---66666666--88888888------------|
E|--66666666---------------------------------|

THEN INTRO PART 1
NEXT INTRO PART 2
REPEAT VERSE THEN
CHORUS

BRIDGE: SOLO NOT YET FINISHED (Someone Pls. Help me to Transcribed it pls)

AFTER BRIDGE SOLO
e|----------------------------------|
B|----------------------------------|
G|--8888/10101010--8888/10101010----| REPEAT 2X
D|--xxxx--x-x-x-x--xxxx--x-x-x-x----| 
A|--6666/-8-8-8-8--6666/-8-8-8-8----|
E|----------------------------------|

OUTRO
Without reason...    Without reason..
e|----------------------------------------|
B|----------------------------------------|
G|--8888/1010--------8888/1010------------|
D|--8888/1010--------8888/1010------------| REPEAT 2X
A|--6666/8888--------6666/8888------------|
E|----------------------------------------|

Stuck in a...
    
e|-----------------------------------------------|
B|---------------------------------------------9~|
G|-------------------8-8-8-8/10-10-10-10-----10~-|
D|--8-8-8-8-8-8-8-8--8-8-8-8/10-10-10-10---10~---|
A|--8-8-8-8-8-8-8-8--6-6-6-6/-8--8--8--8--8~-----|
E|--6-6-6-6-6-6-6-6------------------------------|
    . . . . . . . .  . . . .  .  .  .  .   

`END

Stanza 1:

Stuck in a holy ground
Stuck in a holy ground         
Oh, and I can't get out
Oh, and I can't get out from this

Stanza 2:
    
Made answers to satisfy
Made answers to satisfy
Comments for you to cry    
Comments for you to try again

Chorus:
Rhyme, rhyme without reason [4x]


I would like to greet and gve thanks to my Cockmates in Nsda Traitor Social Club!!!

www.myspace.com/hilera