Hillsong London - Its A New Day Text Guitar Tab

Learn the song with the online tablature player
                             IT’S A NEW DAY – Hillsong London

Intro/Verse:

G|-----6------------------------------------|
D|-7-7---7-7\----6-6------11-----------7/9--|
A|--------------------9-9----9-9\----5------|
E|------------------------------------------|

G|-----6----------------------------------------------|
D|-7-7---7-7\----6-6------11-----------------9-9-9-9--|
A|--------------------9-9----9-9\----5-5-5-5----------|
E|----------------------------------------------------|

Pre-Chorus

G|-----------------------------------------------------------------------|
D|-----------------------------------------------------------------------|
A|-7777777777777777-5555555555555555-7777777777777777----------55555555--|
E|----------------------------------------------------77777777-----------|

Chorus

G|---------------------------------------------------------------------------|
D|---------------------------------------------------------------------------|
A|----------77777777-99999999-55555555----------777777777-5555555555555555---|
E|-55555555----------------------------55555555------------------------------|

G|------------------------------------------------------|
D|------------------------------------------------------|
A|----------77777777-99999999-55555555-9-9-9-9--5--2--0-|
E|-55555555---------------------------------------------|

Bridge

G|-----9-----9------7--------|
D|-7-7---7-7----5-5---5-5----|
A|------------------------5--|
E|---------------------------|(x10)

Outro
Same as bridge.

| /  slide up
| \  slide down
| h  hammer-on
| p  pull-off
| ~  vibrato
| +  harmonic
| x  Mute note