Hillsong United - Free Text Guitar Tab

Learn song with the online tabulature player
Free by Hillsong United

solo:

e|--------------------------------------------------------| 
B|-7-7---7---7-7---------------7-7---7---7-7--------------|
G|-----4---4-----4---6/8/6--4------4---4-----4---6/8/6--4-|
D|--------------------------------------------------------|
A|--------------------------------------------------------|
E|--------------------------------------------------------|


e|--------------------------------------------------------|
B|-7-7---7---7-7---------------7-7---7---7-7---5/7/5-4----|
G|-----4---4-----4---6/8/6--4------4---4-----4---------4--|
D|--------------------------------------------------------|
A|--------------------------------------------------------|
E|--------------------------------------------------------|