Hillsong United - Nova Text Guitar Tab

Learn song with the online tabulature player
This is the version from the "Live in Miami" album.  Key of A


Verse 1:
E---3-2-3--3-2-3--3-2-3--3-2-3--------|
B-------------------------------------|
G-------------------------------------|
D-------------------------------------|
A-------------------------------------|
E-------------------------------------|


Verse 2:
E---3-2-3--3-2-3--3-2-3--3-2---0--------3-2-3--3-2-3--3-2-3--3-2----------|
B-------------------------------------------------------------------------|
G-------------------------------------------------------------------------|
D-------------------------------------------------------------------------|
A-------------------------------------------------------------------------|
E-------------------------------------------------------------------------|


Chorus: (1st time only)
E------------------                 ---------------         ----------------------         -----|
B-------10-9h10----                 -------9-7h9---         ----------------------         -----|
G---9--------------                 ---9-----------         -----9-----11--9h11--          -----|
D-7--7-------------  X4             -9--9---------- X2      --11--11-------------X2        --7--|
A------------------                 ---------------         ---------------------          -----|


Verse 3:
E---3-2-3--3-2-3--3-2-3--3-2--0-----------------------3-2-3--3-2-3--3-2-3--3-2-----|
B---------------------------------2h3--2---2h3--2----------------------------------|
G----------------------------------------------------------------------------------|
D----------------------------------------------------------------------------------|
A----------------------------------------------------------------------------------|
E----------------------------------------------------------------------------------|


Chorus:
E---------------------------------------------------------------9-7h9--------|
B---------10-9h10-----------10-9h10-----------10-9h10------------------------|
G----9-----------------9------------------9-----------------9----------------|
D--7--7--------------7--7---------------7--7--------------7--7---------------|
A----------------------------------------------------------------------------|
E----------------------------------------------------------------------------|


E---------------------------------------------------------------------------------|
B--------9-7h9------------9-7h9---------------------------------------------------|
G----9----------------9----------------9-----11--9h11-------9-----11-9------------|
D--9--9-------------9--9------------11--11---------------11--11---------12-11-----|
A---------------------------------------------------------------------------------|
E---------------------------------------------------------------------------------|


E-------------------------      ------------------------------------9-7----------------|
B--------10-9h10----------10-9h10---------10-9h10----------------10-9------------------|
G----9----------------9----------------9-----------------9-----------------------------|
D--7--7-------------7--7-------------7--7--------------7--7----------------------------|
A--------------------------------------------------------------------------------------|
E--------------------------------------------------------------------------------------|


E--------------------------------------------------------------------------------|
B--------9-7h9------------9-7h9-----------10--9h10-------------------------------|
G----9---------------9----------------9-----------------9-----11-9---------------|
D--9--9------------9--9------------11--11------------11--11--------12-11--(7)----|
A--------------------------------------------------------------------------------|
E--------------------------------------------------------------------------------|