Hillsong United - The Fathers Heart Text Guitar Tab

Learn song with the online tabulature player
Title: The Father's Heart
Artist: Hillsong
Album: A Beautiful Exchange
Tabber: Oliver Ørskov
Tempo = 120

Hey guys, i just wanted to do a tab of this song because I don't see it out there, and 
it's really simple.
This is my first tab, so forgive me if there are any mistakes.

It goes something like this.
(just give it a lot of delay - that way it sounds great!)

This is only the intro part that the guitar plays a lot of the time.. You can check out 
the chords on some of the other tabs.

E |----------------------------|----------------------------|
B |--------9--------9----------|--------9--------9----------|
G |-----9--------9--------9----|-----9--------9--------9----|
D |--9--------9----------------|--9--------9----------------|
A |----------------------------|----------------------------|
E |----------------------------|----------------------------|


----------------------------|----------------------------|
--------12-------12---------|--------12-------12---------|
-----9--------9--------9----|-----9--------9--------9----|
--11-------11---------------|--11-------11---------------|
----------------------------|----------------------------|
----------------------------|----------------------------|


----------------------------|----------------------------|
--------9--------9----------|--------12-------12---------|
-----9--------9--------9----|-----9--------9--------9----|
--9--------9----------------|--11-------11---------------|
----------------------------|----------------------------|
----------------------------|----------------------------|


----------------------------|----------------------------||
--------9--------9----------|--------9--------9----------||
-----9--------9--------9----|-----9--------9--------9----||
--9--------9----------------|--9--------9----------------||
----------------------------|----------------------------||
----------------------------|----------------------------||