Hillsong United - The Stand Text Guitar Tab

Learn song with the online tabulature player
Chorus:
--------------|-------------|
-7-----9------|10-----9-----|
--------------|-------------|
---7s9---9s11-|--11s9---9s7-|
--------------|-------------|
--------------|-------------|

-------------|---------------|
-7----9------|10------14-----|
-------------|---------------|
--7s9---9s11-|--12s14----9s7-|
-------------|---------------|
-------------|---------------|

Instrumental
---------12--12-----------------------------|
-14--14----------12--12--14--15-------------|
---14--14--14--14--14--14--14--14-----------|(keep repeating)
--------------------------------------------|
--------------------------------------------|
--------------------------------------------|