Hillsongs - By Your Side Text Guitar Tab

Learn song with the online tabulature player
tabbed by Hessler Minel (ashenvaie@yahoo.com)

Sond title: By Your Side

|--3--------------------------------------------------------------|
|--3-------3------3------3----------------------------------------|
|--0-----0------0------0------------------------------------------|
|--0---3------2------3--------------------------------------------|1st intro
|--2--------------------------------------------------------------|
|--3--------------------------------------------------------------|


|--3-------------------------3---3--------------------------------|
|--3---------------------------3----------------------------------|
|--0-------3------3-----3-----------------------------------------|
|--0-----0------0-----0-------------------------------------------|2nd intro
|--2---3------2-----3---------------------------------------------|
|--3--------------------------------------------------------------|

elow!..... intro lng alam ko eh... hehehe..... God Bless 2 all...