Hillsongs - Irresistable Text Guitar Tab

Learn song with the online tabulature player
Irresistable
tabbed by:sheRwiN BuLaLa(sherwin_807@yahoo.com)
listen to the song carefully!!!!!!!!!

|----------------------|--0-7-9-9--9-7----7-|-------9-9-9-9-7------------|
|-----------------10-10|---------------10---|-10--------------10-10---7-8|
|--6--7--7/9--9--------|--------------------|----9------------------9----|
|--5--7--7/9-----------|--------------------|----------------------------|
|----------------------|--------------------|----------------------------|
|----------------------|--------------------|----------------------------|


|--------------------------------------------------------------|
|-8-10-8-------------------------------------------------------|
|---------9p7---------6-7-6------6-7-6------6-7/9-9-9-11-11-9-9|
|-------------9p7-7h9--------7h9--------7h9--------------------|
|--------------------------------------------------------------|
|--------------------------------------------------------------|


|--------------------------------------------------------------------------------|
|----------------------12h4-14-14/17-17-17-17-17-17-15-14-14h15r14-12-14-12-10-10|
|----9----------14-14------------------------------------------------------------|
|-11---12-12/14------------------------------------------------------------------|
|--------------------------------------------------------------------------------|
|--------------------------------------------------------------------------------|