Hillsongs - None But Jesus Text Guitar Tab

Learn song with the online tabulature player
None But Jesus
Hillsong United


Solo:

e  ------------------------------------------------------7--9--11---|
b  --------------------------------------------------5--7--12-------|
g  ---8-8-8-9-11-4s6--4s6-8-6-4-----8-8-8-9-11-4s6-4s6-8--9--11-----|
d  ----------------------------4s6----------------------------------|
a  -----------------------------------------------------------------|
e  -----------------------------------------------------------------|


e  ------------------------------------------------------------------6-|
b  ------------------------------------------------------12s11-------6-|
g  ---8-8-8-9-11-4s6--4s6-8-6-4------8-8-8-9-11-4s6-4s6-8----11------6-|
d  ----------------------------4s6-----------------------------13b14-4-|
a  ------------------------------------------------------------------4-|
e  ------------------------------------------------------------------6-|