Hillsongs - We Want To See Text Guitar Tab

Learn song with the online tabulature player
From: JpM of TCF Bacolod

This is just my own version of it.:-)

   G        D          
E|-----------------------------------|
B|--15*-15---12--13s1515--12-15-15*--|
G|---------12------------------------|
D|-----------------------------------|
A|-----------------------------------|
E|-----------------------------------|

   Em               C            D       
E|------------------------------------------|
B|------------------------------13-12-------|
G|--------12-14-12--12-----12-14-----14-12--|
D|--12-14---------14-----14-----------------|
A|------------------------------------------|
E|------------------------------------------|

*-bend whole note