Hillsongs - You Are My World Text Guitar Tab

Learn the song with the online tablature player
verse chords
Em-C-G-D {useintro tabs(2x)}

pre-chorus
Am7 C Dsus D
I.
e:|----------------------------------------------------|
B:|--8--7--5-5--7-8--7---------------------------------|
G:|----------------------------------------------------|
D:|----------------------------------------------------|
a:|----------------------------------------------------|
e:|----------------------------------------------------|
II.
e:|----------------------------------------------------|
B:|--8--7--5-7-8-8--10---------------------------------|
G:|----------------------------------------------------|
D:|----------------------------------------------------|
a:|----------------------------------------------------|
e:|----------------------------------------------------|

I.chorus chords:G-D-C-D
              G D C Cm

chorus tabs
2x)
e:|-------7-7--|-------7-----|-------7-8-7-------------|
B:|--8-10------|--8-10---10--|--8-10-------10-8-8------|
G:|----------------------------------------------------|
D:|----------------------------------------------------|
a:|----------------------------------------------------|
e:|----------------------------------------------------|

repeat all and change the last chord Cm to D on the last part of chorus.
do intro chords for instrumentals..do the chorus for 2x.

proceed to pre-chorus tabs and chords..
repeat chorus for 2x..