HIM - Venus In Our Blood Text Guitar Tab

Learn song with the online tabulature player
Title: Venus (In our Blood)
Artist: HIM
Album: Dark Light

Instrument: Guitar

Tabbed by: Dave Vengance 

Notes:
I tabbed this by ear. It sounds pretty close, I'm not too sure if this is exactly what
the keyboadist is playing. I tried to do the rest of the song, but The verse sounds
blurred. I'm doing the guitar tabs now, but I can't figure out the verse too. If anyone
want to help then Contact me at reaperman12202@hotmail.com. 

Intro:

Keayboard on Guitar: 

E ----------------------------------------------------------------||
B ----3-2----3-2--------------------------------------------------||
G --4------4-----2-4-2--------------------------------------------||
D ---------------------2------------------------------------------|| x 2
A ----------------------------------------------------------------||
E ----------------------------------------------------------------||


It basicly goes like that I can't hear the verse good. Sounds like it's blurred or something. 

Chorus:

E -2-----2-----2---3-----3-----3---2-----2-----2---0-----0-----0--------------||
B ---3-----3-----3---3-----3-----3---3-----3-----3---3-----3-----3------------||
G -----4-----4---------4-----4---------4-----4---------4-----4----------------|| Repeat Once
D ----------------------------------------------------------------------------||
A ----------------------------------------------------------------------------||
E ----------------------------------------------------------------------------||


E -3-----3----3---2-----2-----2---0-----0-----0-----||
B ---3-----3----3---3-----3-----3---3-----3-----3---||
G -----4-----4--------4-----4---------4-----4-------||
D --------------------------------------------------||
A --------------------------------------------------||
E --------------------------------------------------||

E 0-----0-----0---3-----3-----3-----3-----2-----2-----2----||
B --3-----3-----3---3-----3-----3-----3-----3-----3-----3--||
G ----4-----4---------4-----4-----4-----------4-----4------||
D ---------------------------------------------------------||
A ---------------------------------------------------------||
E ---------------------------------------------------------||

Then it's back to the intro before you go to the verse again.

E ----------------------------------------------------------------||
B ----3-2----3-2--------------------------------------------------||
G --4------4-----2-4-2--------------------------------------------||
D ---------------------2------------------------------------------|| x 2
A ----------------------------------------------------------------||
E ----------------------------------------------------------------||

Bridge has no Keyboard.

This is all I have so far. I'm gonna try to get the verses up and the last chorus (since
it's played at a higher pitch than the first and second chorus. If you know the notes on
the neck of the guitar than you can sort of figure it out yourself. It's the same exact
thing as above, but played at a higher pitch. I'll be posting the actual guitar tabs soon
along with the bass tabs too.