Hinder - Bliss Text Guitar Tab

Learn song with the online tabulature player
Hinder - Bliss (I don`t wanna know)

Intro 
e|---------------------------------|
B|---------------------------------|
G|---------5-5-5-5-----------------|
D|-7-7-7-7-5-5-5-5-5-5-5-5-3~------|
A|-7-7-7-7-3-3-3-3-5-5-5-5-3~------|
E|-5-5-5-5---------3-3-3-3-1~------|


Verse 1
e|---------------------------------|
B|---------------------------------|
G|---------5-5-5-5-----------------|X3
D|-7-7-7-7-5-5-5-5-5-5-5-5-3-3-3-3-|
A|-7-7-7-7-3-3-3-3-5-5-5-5-3-3-3-3-|
E|-5-5-5-5---------3-3-3-3-1-1-1-1-|

e|--------------------------------------|
B|--------------------------------------|
G|---------5-5-5-5----------------------|
D|-7-7-7-7-5-5-5-5-5-5-5-5-3~-5-5-5-5-5-|
A|-7-7-7-7-3-3-3-3-5-5-5-5-3~-5-5-5-5-5-|
E|-5-5-5-5---------3-3-3-3-1~-3-3-3-3-3-|


Chorus
e|---------------------------------|
B|---------------------------------|
G|---------5-5-5-5-----------------|X2
D|-3-3-3-3-5-5-5-5-5-5-5-5-5-5-5-5-|
A|-3-3-3-3-3-3-3-3-5-5-5-5-5-5-5-5-|
E|-1-1-1-1---------3-3-3-3-3-3-3-3-|

e|---------------------------------|
B|---------------------------------|
G|---------5-5-5-5---------7-7-7-7-|
D|-7-7-7-7-5-5-5-5-5-5-5-5-7-7-7-7-|
A|-7-7-7-7-3-3-3-3-5-5-5-5-5-5-5-5-|
E|-5-5-5-5---------3-3-3-3---------|

e|---------------------------------|
B|---------------------------------|
G|---------5-5-5-5-----------------|
D|-3-3-3-3-5-5-5-5-5-5-5-5-5-5-5-5-|
A|-3-3-3-3-3-3-3-3-5-5-5-5-5-5-5-5-|
E|-1-1-1-1---------3-3-3-3-3-3-3-3-|

e|---------------------------------|
B|---------------------------------|
G|---------5-5-5-5-----------------|
D|-7-7-7-7-5-5-5-5-5-5-5-5-3-3-3-3-|
A|-7-7-7-7-3-3-3-3-5-5-5-5-3-3-3-3-|
E|-5-5-5-5---------3-3-3-3-1-1-1-1-|

e|---------------------------------|
B|---------------------------------|
G|---------5-5-5-5-----------------|
D|-7-7-7-7-5-5-5-5-5-5-5-5-3~------|
A|-7-7-7-7-3-3-3-3-5-5-5-5-3~------|
E|-5-5-5-5---------3-3-3-3-1~------|


Verse 2
e|---------------------------------|
B|---------------------------------|
G|---------5-5-5-5-----------------|X3
D|-7-7-7-7-5-5-5-5-5-5-5-5-3-3-3-3-|
A|-7-7-7-7-3-3-3-3-5-5-5-5-3-3-3-3-|
E|-5-5-5-5---------3-3-3-3-1-1-1-1-|

e|--------------------------------------|
B|--------------------------------------|
G|---------5-5-5-5----------------------|
D|-7-7-7-7-5-5-5-5-5-5-5-5-3~-5-5-5-5-5-|
A|-7-7-7-7-3-3-3-3-5-5-5-5-3~-5-5-5-5-5-|
E|-5-5-5-5---------3-3-3-3-1~-3-3-3-3-3-|


Chorus
e|---------------------------------|
B|---------------------------------|
G|---------5-5-5-5-----------------|X2
D|-3-3-3-3-5-5-5-5-5-5-5-5-5-5-5-5-|
A|-3-3-3-3-3-3-3-3-5-5-5-5-5-5-5-5-|
E|-1-1-1-1---------3-3-3-3-3-3-3-3-|

e|---------------------------------|
B|---------------------------------|
G|---------5-5-5-5---------7-7-7-7-|
D|-7-7-7-7-5-5-5-5-5-5-5-5-7-7-7-7-|
A|-7-7-7-7-3-3-3-3-5-5-5-5-5-5-5-5-|
E|-5-5-5-5---------3-3-3-3---------|

e|---------------------------------|
B|---------------------------------|
G|---------5-5-5-5-----------------|
D|-3-3-3-3-5-5-5-5-5-5-5-5-5-5-5-5-|
A|-3-3-3-3-3-3-3-3-5-5-5-5-5-5-5-5-|
E|-1-1-1-1---------3-3-3-3-3-3-3-3-|


Solo (Dont know it so i will just put the rythem part to it)
e|---------------------------------|
B|---------------------------------|
G|---------5-5-5-5---------5-5-5-5-|
D|-3-3-3-3-5-5-5-5-7-7-7-7-5-5-5-5-|
A|-3-3-3-3-3-3-3-3-7-7-7-7-3-3-3-3-|
E|-1-1-1-1---------5-5-5-5---------|

e|---------------------------------|
B|---------------------------------|
G|---------5-5-5-5---------5-5-5-5-|
D|-3-3-3-3-5-5-5-5-5-5-5-5-5-5-5-5-|
A|-3-3-3-3-3-3-3-3-5-5-5-5-3-3-3-3-|
E|-1-1-1-1---------3-3-3-3---------|

e|---------------------------------|
B|---------------------------------|
G|---------5-5-5-5---------5-5-5-5-|
D|-3-3-3-3-5-5-5-5-7-7-7-7-5-5-5-5-|
A|-3-3-3-3-3-3-3-3-7-7-7-7-3-3-3-3-|
E|-1-1-1-1---------5-5-5-5---------|

e|---------------------------------|
B|---------------------------------|
G|---------------------------------|
D|-3-3-3-3-3-3-3-3-5-5-5-5-5-5-5-5-|
A|-3-3-3-3-3-3-3-3-5-5-5-5-5-5-5-5-|
E|-1-1-1-1-1-1-1-1-3-3-3-3-3-3-3-3-|


Outro
e|-------------------------------------------------|
B|-------------------------------------------------|
G|-13-13-13-13-------------15-15-15-15-15-15-15-15-|X6
D|-13-13-13-13-13-13-13-13-15-15-15-15-15-15-15-15-|
A|-11-11-11-11-13-13-13-13-13-13-13-13-13-13-13-13-|
E|-------------11-11-11-11-------------------------|

e|-------------------------------------------------|
B|-------------------------------------------------|
G|-------------------------15-15-15-15-10-10-10-10-|
D|-10-10-10-10-13-13-13-13-15-15-15-15-10-10-10-10-|
A|-10-10-10-10-13-13-13-13-13-13-13-13-8--8--8--8--|
E|-8--8--8--8--11-11-11-11-------------------------|

e|-------------------------------------------------|
B|-------------------------------------------------|
G|-13-13-13-13-------------15-15-15-15-15-15-15-15-|
D|-13-13-13-13-13-13-13-13-15-15-15-15-15-15-15-15-|
A|-11-11-11-11-13-13-13-13-13-13-13-13-13-13-13-13-|
E|-------------11-11-11-11-------------------------|

e|---------------------------------|
B|---------------------------------|
G|-5-5-5-5-5-5-5-5-----------------|
D|-5-5-5-5-5-5-5-5-3-3-3-3-3-3-3-3-|
A|-3-3-3-3-3-3-3-3-3-3-3-3-3-3-3-3-|
E|-----------------1-1-1-1-1-1-1-1-|

e|---------------------------------|
B|---------------------------------|
G|-5-5-5-5-5-5-5-5-----------------|
D|-5-5-5-5-5-5-5-5-3-3-3-3~--------|
A|-3-3-3-3-3-3-3-3-3-3-3-3~--------|
E|-----------------1-1-1-1~--------|

THE END!

this is my first tab so plz leave a comment or a rating thanx!