Hinder - By The Way Text Guitar Tab

Learn song with the online tabulature player
Hinder - By The Way


Intro
Guitar 1
e|-------------------------|
B|-12-12-12-12-12-12-12-12-|
G|-------------------------|x2
D|-------------------------|
A|-------------------------|
E|-------------------------|

Guitar 2
   Am      G       F      Dsus2   
e|---------3-3-3-3-1-1-1-1---------|
B|-1-1-1-1---------1-1-1-1-3-3-3-3-|
G|-2-2-2-2---------2-2-2-2-2-2-2-2-|
D|-2-2-2-2---------3-3-3-3---------|
A|---------2-2-2-2-----------------|
E|---------3-3-3-3-----------------|

Verse
   Am      G       Am      F       Am
e|---------3-3-3-3---------1-1-1-1---------|
B|-1-1-1-1---------1-1-1-1-1-1-1-1-1-1-1-1-|
G|-2-2-2-2---------2-2-2-2-2-2-2-2-2-2-2-2-|
D|-2-2-2-2---------2-2-2-2-3-3-3-3-2-2-2-2-|
A|---------2-2-2-2-------------------------|
E|---------3-3-3-3-------------------------|

   G       Am      F
e|-3-3-3-3---------1-1-1-1-|
B|---------1-1-1-1-1-1-1-1-|
G|---------2-2-2-2-2-2-2-2-|
D|---------2-2-2-2-3-3-3-3-|
A|-2-2-2-2-----------------|
E|-3-3-3-3-----------------|

   Am      G       Am      F       Am
e|---------3-3-3-3---------1-1-1-1---------|
B|-1-1-1-1---------1-1-1-1-1-1-1-1-1-1-1-1-|
G|-2-2-2-2---------2-2-2-2-2-2-2-2-2-2-2-2-|
D|-2-2-2-2---------2-2-2-2-3-3-3-3-2-2-2-2-|
A|---------2-2-2-2-------------------------|
E|---------3-3-3-3-------------------------|

   G       Am      F
e|-3-3-3-3---------1-1-1-1-|
B|---------1-1-1-1-1-1-1-1-|
G|---------2-2-2-2-2-2-2-2-|
D|---------2-2-2-2-3-3-3-3-|
A|-2-2-2-2-----------------|
E|-3-3-3-3-----------------|
                 
   Am      G       F      Dsus2   
e|---------3-3-3-3-1-1-1-1---------|
B|-1-1-1-1---------1-1-1-1-3-3-3-3-|
G|-2-2-2-2---------2-2-2-2-2-2-2-2-|
D|-2-2-2-2---------3-3-3-3---------|
A|---------2-2-2-2-----------------|
E|---------3-3-3-3-----------------|

   Am      G       F         
e|---------3-3-3-3-1-1-1-1~-|
B|-1-1-1-1---------1-1-1-1~-|
G|-2-2-2-2---------2-2-2-2~-|
D|-2-2-2-2---------3-3-3-3~-|
A|---------2-2-2-2----------|
E|---------3-3-3-3----------|

Chorus
   C               F       G       C
e|-----------------1-1-1-1-3-3-3-3-----------------|
B|-1-1-1-1-1-1-1-1-1-1-1-1---------1-1-1-1-1-1-1-1-|
G|-----------------2-2-2-2-------------------------|
D|-2-2-2-2-2-2-2-2-3-3-3-3---------2-2-2-2-2-2-2-2-|
A|-3-3-3-3-3-3-3-3---------2-2-2-2-3-3-3-3-3-3-3-3-|
E|-------------------------3-3-3-3-----------------|

   F       Dsus2  A        F
e|-1-1-1-1-----------------1-1-1-1-|
B|-1-1-1-1-3-3-3-3-2-2-2-2-1-1-1-1-|
G|-2-2-2-2-2-2-2-2-2-2-2-2-2-2-2-2-|
D|-3-3-3-3---------2-2-2-2-3-3-3-3-|
A|---------------------------------|
E|---------------------------------|

Then the intro again 2x

Verse
   Am      G       Am      F       Am
e|---------3-3-3-3---------1-1-1-1---------|
B|-1-1-1-1---------1-1-1-1-1-1-1-1-1-1-1-1-|
G|-2-2-2-2---------2-2-2-2-2-2-2-2-2-2-2-2-|
D|-2-2-2-2---------2-2-2-2-3-3-3-3-2-2-2-2-|
A|---------2-2-2-2-------------------------|
E|---------3-3-3-3-------------------------|

   G       Am      F
e|-3-3-3-3---------1-1-1-1-|
B|---------1-1-1-1-1-1-1-1-|
G|---------2-2-2-2-2-2-2-2-|
D|---------2-2-2-2-3-3-3-3-|
A|-2-2-2-2-----------------|
E|-3-3-3-3-----------------|
                 
   Am      G       F      Dsus2   
e|---------3-3-3-3-1-1-1-1---------|
B|-1-1-1-1---------1-1-1-1-3-3-3-3-|
G|-2-2-2-2---------2-2-2-2-2-2-2-2-|
D|-2-2-2-2---------3-3-3-3---------|
A|---------2-2-2-2-----------------|
E|---------3-3-3-3-----------------|

   Am      G       F         
e|---------3-3-3-3-1-1-1-1~-|
B|-1-1-1-1---------1-1-1-1~-|
G|-2-2-2-2---------2-2-2-2~-|
D|-2-2-2-2---------3-3-3-3~-|
A|---------2-2-2-2----------|
E|---------3-3-3-3----------| 

Then Chorus again

Bridge
   F       C       G       F       Am      G       Am      F
e|-1-1-1-1---------3-3-3-3-1-1-1-1---------3-3-3-3---------1-1-1-1-|
B|-1-1-1-1-1-1-1-1---------1-1-1-1-1-1-1-1---------1-1-1-1-1-1-1-1-|
G|-2-2-2-2-----------------2-2-2-2-2-2-2-2---------2-2-2-2-2-2-2-2-|
D|-3-3-3-3-2-2-2-2---------3-3-3-3-2-2-2-2---------2-2-2-2-3-3-3-3-|
A|---------3-3-3-3-2-2-2-2-----------------2-2-2-2-----------------|
E|-----------------3-3-3-3-----------------3-3-3-3-----------------|

Chorus/Outro

   C               F       G       C
e|-----------------1-1-1-1-3-3-3-3-----------------|
B|-1-1-1-1-1-1-1-1-1-1-1-1---------1-1-1-1-1-1-1-1-|
G|-----------------2-2-2-2-------------------------|
D|-2-2-2-2-2-2-2-2-3-3-3-3---------2-2-2-2-2-2-2-2-|
A|-3-3-3-3-3-3-3-3---------2-2-2-2-3-3-3-3-3-3-3-3-|
E|-------------------------3-3-3-3-----------------|

   C               F       G       C
e|-----------------1-1-1-1-3-3-3-3-----------------|
B|-1-1-1-1-1-1-1-1-1-1-1-1---------1-1-1-1-1-1-1-1-|
G|-----------------2-2-2-2-------------------------|
D|-2-2-2-2-2-2-2-2-3-3-3-3---------2-2-2-2-2-2-2-2-|
A|-3-3-3-3-3-3-3-3---------2-2-2-2-3-3-3-3-3-3-3-3-|
E|-------------------------3-3-3-3-----------------|

   F       G       C
e|-1-1-1-1-3-3-3-3-----------------|
B|-1-1-1-1---------1-1-1-1-1-1-1-1-|
G|-2-2-2-2-------------------------|
D|-3-3-3-3---------2-2-2-2-2-2-2-2-|
A|---------2-2-2-2-3-3-3-3-3-3-3-3-|
E|---------3-3-3-3-----------------|
 
   F       D   A   F
e|-1-1-1-1---------1-1-1-1-----------------|
B|-1-1-1-1-3-3-2-2-1-1-1-1-----------------|
G|-2-2-2-2-2-2-2-2-2-2-2-2-----------------|
D|-3-3-3-3-----2-2-3-3-3-3-----------------|
A|-----------------------------------------|
E|-----------------------------------------|
                                 
   Am      G       Am      F
e|---------3-3-3-3---------1~-|
B|-1-1-1-1---------1-1-1-1-1~-|
G|-2-2-2-2---------2-2-2-2-2~-|
D|-2-2-2-2---------2-2-2-2-3~-|
A|---------2-2-2-2------------|
E|---------3-3-3-3------------|
                 
The End