Hinder - Heaven Sent Text Guitar Tab

Learn song with the online tabulature player
-------------------------------------------------------------------------------
                             Heaven Sent - Hinder
-------------------------------------------------------------------------------
Tabbed by:
Email:Cheetaclawsfl@yahoo.com

Tuning:standard

I didn't see any good tabs for this song, so I decided to do it myself

intro: The first guitar plays this part two times
e|---------------------------------------------------------------------------|
B|---------------------------------------------------------------------------|
G|-6---8---9---8---11---9---8---9--------------------------------------------|
D|---6---6---6---6----6---6---6---6------------------------------------------|
A|---------------------------------------------------------------------------|
E|---------------------------------------------------------------------------|

Intro: The second guitar comes in after the second time playing this
e|-9---11---12---11---14---12---11---12--------------------------------------|
B|---9----9----9----9----9----9----9----9------------------------------------|
G|---------------------------------------------------------------------------|
D|---------------------------------------------------------------------------|
A|---------------------------------------------------------------------------|
E|---------------------------------------------------------------------------|

verse: Your gonna have to figure out the rhythm yourself
e|---------------------------------------------------------------------------|
B|-5-5-5-5-5-4-4-4-4-4-------------------------------------------------------|
G|-6-6-6-6-6-4-4-4-4-4-4-4-4-4-4-6-6-6-6-6-----------------------------------|
D|-6-6-6-6-6-4-4-4-4-4-6-6-6-6-6-7-7-7-7-7-----------------------------------|
A|-4-4-4-4-4-2-2-2-2-2-6-6-6-6-6-7-7-7-7-7-----------------------------------|
E|---------------------4-4-4-4-4-5-5-5-5-5-----------------------------------|

Pre-chorus:  The first guitar plays this
e|---------------------------------------------------------------------------|
B|---------------------------------------------------------------------------|
G|-8b9r8-8b9r8-8b9r8-8b9r8-8-8-8-8-8-8---------------------------------------|
D|---------------------------------------------------------------------------|
A|---------------------------------------------------------------------------|
E|---------------------------------------------------------------------------|
I didn't put the exact amount of times you do the bend

Pre-Chorus:  I think the second guitar plays this but I am not sure
e|---------------------------------------------------------------------------|
B|---------------------------------------------------------------------------|
G|-9-9-9-9-9-9-9-9-9-9-9-9-9-9-9-9-9-9-9-9-9-9-9-----------------------------|
D|-9-9-9-9-9-9-9-9-9-9-9-9-9-9-9-9-9-9-9-9-9-9-9-----------------------------|
A|-7-7-7-7-7-7-7-7-7-7-7-7-7-7-7-6-6-6-6-6-6-6-6-----------------------------|
E|---------------------------------------------------------------------------|

Chorus: Once again, you will have to figure out the rhythm yourself
e|---------------------------------------------------------------------------|
B|---------------------------------------------------------------------------|
G|-6-6-6-6-6-----------9-9-9-9-9---------------------------------------------|
D|-6-6-6-6-6-7-7-7-7-7-9-9-9-9-9-9-9-9-9-9-----------------------------------|
A|-4-4-4-4-4-7-7-7-7-7-7-7-7-7-7-9-9-9-9-9-----------------------------------|
E|-----------5-5-5-5-5-----------7-7-7-7-7-----------------------------------|

at the end of the chorus this is played:
e|---------------------------------------------------------------------------|
B|---------------------------------------------------------------------------|
G|---------------------------------------------------------------------------|
D|-7-7-7-7-7-7-7-7-7-7-------------------------------------------------------|
A|-7-7-7-7-7-7-7-7-7-7-------------------------------------------------------|
E|-4-4-4-4-4-5-5-5-5-5-------------------------------------------------------|


The rest of the song is the same until the bridge:
e|-----------------------------12-12-12-11-12-12-----------------------------|
B|-14-14-14-14-14-101010101010-12-12-12-12-12-12-12-12-12-12-12--------------|
G|-13-13-13-13-13-9-9-9-9-9-9--9--9--9--9--9--9--11-11-11-11-11--------------|
D|-11-11-11-11-11-7-7-7-7-7-7--------------------9--9--9--9--9---------------|
A|---------------------------------------------------------------------------|
E|---------------------------------------------------------------------------|

Another guitar is playing something like this:
e|---------------------------------------------------------------------------|
B|-16h17-16h17-16h17-16p14---------------------------------------------------|
G|---------------------------------------------------------------------------|
D|---------------------------------------------------------------------------|
A|---------------------------------------------------------------------------|
E|---------------------------------------------------------------------------|
(the 17's and the 14 are picked repeatedly...listen to the song if you don't know what I mean)

Then another guitar plays this:
e|-7-9-9-9-9-7-9-9-9-9-9-7-9-9-9-9-9-11-11-11-11-9-9-9-9-9-------------------|
B|---------------------------------------------------------------------------|
G|---------------------------------------------------------------------------|
D|---------------------------------------------------------------------------|
A|---------------------------------------------------------------------------|
E|---------------------------------------------------------------------------|

That's all I have for right now, I will have the solo eventually and I'm still working 
getting the two lead guitar parts for the bridge.  If you have any questions my email is 
the top.

| /  slide up
| \  slide down
| h  hammer-on
| p  pull-off
| ~  vibrato
| +  harmonic
| x  Mute note
===============================================================================