Hinder - Nothin Good About Goodbye Text Guitar Tab

Learn song with the online tabulature player
Song: Nothin' Good About Goodbye
Artist: Hinder
Album: Extreme Behavior
Here you go, fo all u hinder fans out there
this is goin out to cj...

Verse One:
E----------------------------------------------------------------------|
B----------------------------------------------------------------------|
G--7-7-7-7--------5-5-5-5---------------3-3-3-3---------------4-4-4-4--|
D--7-7-7-7--------5-5-5-5---------------3-3-3-3---------------5-5-5-5--|
A--5-5-5-5--------3-3-3-3---------------1-1-1-1---------------5-5-5-5--|
E-------------------------------------------------------------3-3-3-3--|
   I rolled up my sleeves today Cause I thought that this was over 
E-------------------------------------------------------------------------|
B-------------------------------------------------------------------------|
G--7-7-7-7--------5-5-5-5--------------3-3-3-3-------------------4-4-4-4--|
D--7-7-7-7--------5-5-5-5--------------3-3-3-3-------------------5-5-5-5--|
A--5-5-5-5--------3-3-3-3--------------1-1-1-1-------------------5-5-5-5--|
E----------------------------------------------------------------3-3-3-3--|
   But then you   called to say   You forgot that broach of your mother’s 

Pre. Chorus:
E---------------------------------------|
B---------------------------------------|
G----3-3-3-3--------------5-5------7-7--|
D----3-3-3-3--------------5-5------7-7--|
A----1-1-1-1--------------3-3------5-5--|
E---------------------------------------|
      Every time I try to cut the  cord 
E-----------------------------------------------------------------|
B-----------------------------------------------------------------|
G--------3-3-3-3-----------------5-5--------7-7-------4-4-4-4---6-|
D--------3-3-3-3-----------------5-5--------7-7-------5-5-5-5---7-|
A--------1-1-1-1-----------------3-3--------5-5-------5-5-5-5---7-|
E-----------------------------------------------------3-3-3-3---5-|
You come crawling back with some excuse You forgot something 

Chorus:
E---------------------------------------------------------------------|
B---------------------------------------------------------------------|
G--------------------------7-7-7-7--------------------------3-3-3-3---|
D--------------------------7-7-7-7--------------------------3-3-3-3---|
A--------------------------5-5-5-5--------------------------1-1-1-1---|
E---------------------------------------------------------------------|
There’s nothing good about goodbye  I could swear I saw you cry 
E--------------------------------------------------|
B--------------------------------------------------|
G---------------------------4-4-4-4-------6-6-6-6--|
D---------------------------5-5-5-5-------7-7-7-7--|
A---------------------------5-5-5-5-------7-7-7-7--|
E---------------------------3-3-3-3-------5-5-5-5--|
I always knew you’d wind up falling       harder
E-----------------------------------------------------------------|
B-----------------------------------------------------------------|
G-----------------------------3-3-3-3---2-2-2-2----5-5-5-5--------|
D-----------------------------3-3-3-3---3-3-3-3----5-5-5-5--------|
A-----------------------------1-1-1-1---3-3-3-3----3-3-3-3--------|
E---------------------------------------1-1-1-1-------------------|
There’s nothing good about goodbye 
E-----------------------------------------------|
B-----------------------------------------------|
G-----------3-3-3-3---2-2-2-2---6-6-6-6---------|
D-----------3-3-3-3---3-3-3-3---7-7-7-7---------|
A-----------1-1-1-1---3-3-3-3---7-7-7-7---------|
E---------------------1-1-1-1---5-5-5-5---------|
Just say good--bbbb---yyyyeee---yeeeeeee 

Verse Two:
E----------------------------------------------------------------------|
B----------------------------------------------------------------------|
G--7-7-7-7--------5-5-5-5---------------3-3-3-3---------------4-4-4-4--|
D--7-7-7-7--------5-5-5-5---------------3-3-3-3---------------5-5-5-5--|
A--5-5-5-5--------3-3-3-3---------------1-1-1-1---------------5-5-5-5--|
E-------------------------------------------------------------3-3-3-3--|
   I rolled up my sleeves today Cause I thought that this had ended
E------------------------------------------------------------------------|
B------------------------------------------------------------------------|
G-7-7-7-7------5-5-5-5-----------------3-3-3-3------------------4-4-4-4--|
D-7-7-7-7------5-5-5-5-----------------3-3-3-3------------------5-5-5-5--|
A-5-5-5-5------3-3-3-3-----------------1-1-1-1------------------5-5-5-5--|
E---------------------------------------------------------------3-3-3-3--| 
  But then you called again To tell me how you’re gonna blow my best friend 

Pre. Chorus:
E---------------------------------------|
B---------------------------------------|
G----3-3-3-3--------------5-5------7-7--|
D----3-3-3-3--------------5-5------7-7--|
A----1-1-1-1--------------3-3------5-5--|
E---------------------------------------|
      Every time I try to cut the  cord 
E-----------------------------------------------------------------|
B-----------------------------------------------------------------|
G--------3-3-3-3-----------------5-5--------7-7-------4-4-4-4---6-|
D--------3-3-3-3-----------------5-5--------7-7-------5-5-5-5---7-|
A--------1-1-1-1-----------------3-3--------5-5-------5-5-5-5---7-|
E-----------------------------------------------------3-3-3-3---5-|
You come crawling back with some excuse You forgot something 

Chorus:
E---------------------------------------------------------------------|
B---------------------------------------------------------------------|
G--------------------------7-7-7-7--------------------------3-3-3-3---|
D--------------------------7-7-7-7--------------------------3-3-3-3---|
A--------------------------5-5-5-5--------------------------1-1-1-1---|
E---------------------------------------------------------------------|
There’s nothing good about goodbye  I could swear I saw you cry 
E----------------------------------------------------------------|
B----------------------------------------------------------------|
G---------------------------4-4-4-4---------------------6-6-6-6--|
D---------------------------5-5-5-5---------------------7-7-7-7--|
A---------------------------5-5-5-5---------------------7-7-7-7--|
E---------------------------3-3-3-3---------------------5-5-5-5--|
I always knew you’d wind up fa-falling fa-falling       harder
E------------------------------------------------------------|
B------------------------------------------------------------|
G---------------------7-7-7-7----------------------3-3-3-3---|
D---------------------7-7-7-7----------------------3-3-3-3---|
A---------------------5-5-5-5----------------------1-1-1-1---|
E------------------------------------------------------------|
  Every story has two sides In the he-said-she-said fight
E----------------------------------------------------------------|
B----------------------------------------------------------------|
G---------------------------4-4-4-4---------------------6-6-6-6--|
D---------------------------5-5-5-5---------------------7-7-7-7--|
A---------------------------5-5-5-5---------------------7-7-7-7--|
E---------------------------3-3-3-3---------------------5-5-5-5--|
I always knew you’d wind up fa-falling fa-falling       harder

E-----------------------------------------------------------------|
B-----------------------------------------------------------------|
G-----------------------------3-3-3-3---2-2-2-2----5-5-5-5--------|
D-----------------------------3-3-3-3---3-3-3-3----5-5-5-5--------|
A-----------------------------1-1-1-1---3-3-3-3----3-3-3-3--------|
E---------------------------------------1-1-1-1-------------------|
There’s nothing good about goodbye 
E-----------------------------------------------|
B-----------------------------------------------|
G-----------3-3-3-3---2-2-2-2---6-6-6-6---------|
D-----------3-3-3-3---3-3-3-3---7-7-7-7---------|
A-----------1-1-1-1---3-3-3-3---7-7-7-7---------|
E---------------------1-1-1-1---5-5-5-5---------|
Just say good--bbbb---yyyyeee---yeeeeeee 

Bridge:
E-----------------------------------------------|
B-----------------------------------------------|
G--3-3-3-3---2-2-2-2-------------5-5-5-5--------|
D--3-3-3-3---3-3-3-3-------------5-5-5-5--------|
A--1-1-1-1---3-3-3-3-------------3-3-3-3--------|
E------------1-1-1-1----------------------------|
  fa-falling fa-falling, falling out of (you’re falling apart) 
 E-----------------------------------------------|
B-----------------------------------------------|
G--3-3-3-3---2-2-2-2-------------5-5-5-5--------|
D--3-3-3-3---3-3-3-3-------------5-5-5-5--------|
A--1-1-1-1---3-3-3-3-------------3-3-3-3--------|
E------------1-1-1-1----------------------------|
  fa-falling fa-falling, falling out of (you’re falling apart) 
E-----------------------------------------------|
B-----------------------------------------------|
G--3-3-3-3---2-2-2-2-------------5-5-5-5--------|
D--3-3-3-3---3-3-3-3-------------5-5-5-5--------|
A--1-1-1-1---3-3-3-3-------------3-3-3-3--------|
E------------1-1-1-1----------------------------|
  fa-falling fa-falling, falling out of (you’re falling apart) 
E-----------------------------------------------|
B-----------------------------------------------|
G--3-3-3-3---2-2-2-2-------------6-6-6-6--------|
D--3-3-3-3---3-3-3-3-------------7-7-7-7--------|
A--1-1-1-1---3-3-3-3-------------7-7-7-7--------|
E------------1-1-1-1-------------5-5-5-5--------|
  fa-falling fa-falling, falling out of  

Chorus:
E---------------------------------------------------------------------|
B---------------------------------------------------------------------|
G--------------------------7-7-7-7--------------------------3-3-3-3---|
D--------------------------7-7-7-7--------------------------3-3-3-3---|
A--------------------------5-5-5-5--------------------------1-1-1-1---|
E---------------------------------------------------------------------|
There’s nothing good about goodbye  I could swear I saw you cry 
E----------------------------------------------------------------|
B----------------------------------------------------------------|
G---------------------------4-4-4-4---------------------6-6-6-6--|
D---------------------------5-5-5-5---------------------7-7-7-7--|
A---------------------------5-5-5-5---------------------7-7-7-7--|
E---------------------------3-3-3-3---------------------5-5-5-5--|
I always knew you’d wind up fa-falling fa-falling       out of
E------------------------------------------------------------|
B------------------------------------------------------------|
G---------------------7-7-7-7----------------------3-3-3-3---|
D---------------------7-7-7-7----------------------3-3-3-3---|
A---------------------5-5-5-5----------------------1-1-1-1---|
E------------------------------------------------------------|
  Every story has two sides In the he-said-she-said fight
E----------------------------------------------------------------|
B----------------------------------------------------------------|
G---------------------------4-4-4-4---------------------6-6-6-6--|
D---------------------------5-5-5-5---------------------7-7-7-7--|
A---------------------------5-5-5-5---------------------7-7-7-7--|
E---------------------------3-3-3-3---------------------5-5-5-5--|
I always knew you’d wind up fa-falling fa-falling       out of

E-----------------------------------------------------------------|
B-----------------------------------------------------------------|
G-----------------------------3-3-3-3---2-2-2-2----5-5-5-5--------|
D-----------------------------3-3-3-3---3-3-3-3----5-5-5-5--------|
A-----------------------------1-1-1-1---3-3-3-3----3-3-3-3--------|
E---------------------------------------1-1-1-1-------------------|
There’s nothing good about goodbye 
E-----------------------------------------------|
B-----------------------------------------------|
G-----------3-3-3-3---2-2-2-2---6-6-6-6---------|
D-----------3-3-3-3---3-3-3-3---7-7-7-7---------|
A-----------1-1-1-1---3-3-3-3---7-7-7-7---------|
E---------------------1-1-1-1---5-5-5-5---------|
Just say good--bbbb---yyyyeee---yeeeeeee 

this song is dedicated to my old C.J... 

Leave some comments...cuz this took a frikin long time to tab out!

macvsgp714 <3