Hinder - Up All Night Text Guitar Tab

Learn song with the online tabulature player
Tuning: Standard

Guitar I: Lead
Guitar II: Rhythm

INTRO:
Guitar I
e|----------------7------------------------------------7-7-9-7-6-7|
B|9-9-7-9-7-9-7-9---9-9-7-9-7-9-7-9-7---9-9-7-9-7-9-7-9-----------|
G|------------------------------------8---------------------------|
D|----------------------------------------------------------------|
A|----------------------------------------------------------------|
E|----------------------------------------------------------------|

Guitar II (Comes in after Guitar I plays intro 1 time)
e|----------------------|
B|----------------------|
G|----------------------|
D|----------------------|
A|-6-6-6-6-4-6---2--4---|
E|-4-4-4-4-2-4---0--2---|

VERSE:
Both Guitars
e|--------------------------------|
B|-----------------------9-9-7-9--|
G|-----------------------8-8-6-8--|
D|--------------------------------|
A|-------6--x-x-6--x-6------------|
E|-4-4-2-4--x-x-4--x-4------------|

BRIDGE:

Guitar I
e|----------------------|
B|----------------------|
G|----------------------|
D|----------------------|
A|-2-----4----2-----8---|
E|-0-----2----0-----6---|
                     ^
While Guitar 2 holds this note, Guitar I Plays this:

e|-9-7-6-4-|
B|---------|
G|---------|
D|---------|
A|---------|
E|---------|

CHORUS:

Guitar II:
e|----------------------|
B|----------------------|
G|----------------------|
D|----------------------|
A|-6-6-6-6-4-6---2--4---|
E|-4-4-4-4-2-4---0--2---|

Guitar I:
e|----------------|
B|-9-9-9---9-9-9--|
G|----------------|
D|----------------|
A|----------------|
E|----------------|

Just triplets, repeat

POST CHORUS RIFF:

Guitar II:
e|-----------|
B|-----------|
G|-----------|
D|-----------|
A|-6---6-6---|
E|-4---4-4---|

Guitar I:
e|---|
B|-9-|
G|---|
D|---|
A|---|
E|---|
Hold this note and tap the whammy bar.

Verse is played again.

The verse is also played behind the solo.

The solo is just pinch harmonics on the A,D,G,B and e strings in the Key of Ab. I play 
differently every time, so just improvise. The Key of Ab is typically between the 14th 
16th frets. Mess around and it will sound ok.