Hip Parade - Catastrophe Text Guitar Tab

Learn song with the online tabulature player
Artist : Hip Parade
Song   : Catastrophe
Tuning    : Standard EADG

Before you add this tab it is not fully mine most of it is from a tab
from another site because it was the only partly right tab I could find
on the internet and thought I should add it to ultimate-guitar so I
don’t take much credit for this tab but it is correct as I have changed
a bit of it.

intro riff - 

E|5-5-5-5-0---------------5-5-5-5-0---------------|
B|----------0-2-3-5-2-3-5-----------0-2-3-5-2-3-5-|
G|------------------------------------------------|
D|------------------------------------------------|
A|------------------------------------------------|
E|------------------------------------------------|


E|----------------------------------0-|
B|-0-2-3-5-0-2-3-5-3-2-0-2-3-5-3-2--2-|
G|----------------------------------2-|
D|----------------------------------2-|
A|------------------------------------|
E|------------------------------------|


Outro riff –

E|----0-5-0-0-0-0-0-5-------0-5-0-0-0-0-5-5-5-5-|
B|2-3-5-5-5-3-2-3-5-5-3-2-3-5-5-5-3-2-3-5-5-5-5-|
G|--0-0-----------------0-0-0-------------------|
D|----------------------------------------------|
A|----------------------------------------------|
E|----------------------------------------------|



E|----0-5-0-0-0-0-0-5-------0-5-0-0-0-0-5--5--5-|
B|2-3-5-5-5-3-2-3-5-5-3-2-3-5-5-5-3-2-3-5--5--5-|
G|--0-0-----------------0-0-0-------------------|
D|----------------------------------------------|
A|----------------------------------------------|
E|----------------------------------------------|