Hives - My Time Is Coming Text Guitar Tab

Learn song with the online tabulature player
Intro/Verse the same.

 You hear the whisper in the wind, you hear that I come back again
e---------------------------------------------------------------|
B---------------------------------------------------------------|
G-------------7----------------------------------7--------------|
D-------------7-------7------9-------------------7------7----9--|
A-------------5-------7------9-------------------5------7----9--|
E---------------------5------7--------------------------5----7--|

 Though I was dead and gone but my light's still on and..
e---------------------------------------------------------|
B---------------------------------------------------------|
G-------------7-----------------------------------------6-|
D-------------7--------7-----------9-------------4------6-|
A-------------5--------7-----------9-------------4------4-|
E----------------------5-----------7-------------2--------|

 My time is coming
e---------------|
B---------------|
G---------------|
D-----------4---|
A-----------4---|
E-----------2---|

          D       A    B
You see I grew up in a hole
          D       A      B
Squeezing dimonds out of coal
       D       A
Im the seventh son
       B    F#      C#
Im the only one and Im...
       F#
On the rise

(And so on... Now for the chorus)

  Praise the lord my time is coming
e--------------------------------------|
B--------------------------------------|
G-7----------4-------6-----------------|
D-7----------4-------6-------4---------|
A-5----------2-------4-------4---------|
E----------------------------2---------|