Hockey - Too Fake Text Guitar Tab

Learn song with the online tabulature player
Too Fake - Hockey

Album Version

I'm pretty sure this is right.

Intro/ Main Riff
G---------------|
D---------11----|
A---------------| x12
E-6-6-6/9----9--|

Chorus
G--------------------------------------|
D--------------------------------------|
A----------99999999/66666666-----------| x4
E-99999999-------------------55555555--|

Main Riff
G---------------|
D---------11----|
A---------------| x8
E-6-6-6/9----9--|

Chorus
G--------------------------------------|
D--------------------------------------|
A----------99999999/66666666-----------| x4
E-99999999-------------------55555555--|

Main Riff
G------------------------|
D------------------------|
A--------10101111121211--| x4
E-6-6-6------------------|

Chorus
G--------------------------------------|
D--------------------------------------|
A----------99999999/66666666-----------| x10
E-99999999-------------------55555555--|

End on
G------|
D------|
A------|
E-9~---|