Hoffmaestro And Chraa - The Storm Text Guitar Tab

Learn song with the online tabulature player
(\=Slide downwards)

Intro:
                                     Verse riff
|--------|--------|--------|5-------|--------|3-------|--------|3-------|--------|5-------|
|--------|--------|--------|---5----|--------|---3----|--------|---3----|--------|---5----|
|--------|--------|--------|-----6-5|3------3|-----7-3|1------1|-----7-3|1-----3-|-----6-5|
|--------|--------|------8\|--------|--------|--------|--------|--------|--------|--------| 

|--------|
|---55-5-|
|3-------|
|--------|

Verse:

Verse riff 2x

Bridge:

|--------|--------|--------|--------|--------|--------|--------|--------|--------|--------|
|3-------|--------|5-------|3-------|3-------|--------|--------|--------|--------|--------|
|--------|3-------|--------|---6----|--------|3-------|2-------|--------|--------|--------|
|--------|--------|--------|--------|--------|--------|--------|--------|--------|--------|

Chorus:
                                   3x
|--------|--------|--------|3-3-4-4-|
|--------|3-3-3-3-|6-6-6-6-|--------| 
|3-3-3-3-|--------|--------|--------|
|--------|--------|--------|--------|

|--------|--------|--------|--------|
|--------|3-3-3-3-|6-6-6-6-|--------|
|3-3-3-3-|--------|--------|333-333-|
|--------|--------|--------|--------|

Verse:

Verse riff 3x

Bridge

Chorus

Interlude:

|--------|--------|--------|--------|--------|--------|--------|--------|
|--------|--------|--------|--------|--------|--------|--------|---5----|
|3-------|--------|--------|----6-5-|3-------|--------|--------|----6-5-|
|--------|--------|--------|--------|--------|--------|--------|--------|
                                   4x
|--------|--------|--------|--------|
|--------|--------|--------|---5----|
|3-------|----6-5-|3-------|----6-5-|
|--------|--------|--------|--------|

break

Chorus:
                                   5x
|--------|--------|--------|3-3-4-4-|
|--------|3-3-3-3-|6-6-6-6-|--------| 
|3-3-3-3-|--------|--------|--------|
|--------|--------|--------|--------|

|--------|--------|--------|--------|--------|
|--------|3-3-3-3-|6-6-6-6-|--------|--------|
|3-3-3-3-|--------|--------|333-333-|3-------|
|--------|--------|--------|--------|--------|

enjoy!

tabbed by; Dreadrogg