Hollies - After The Fox Text Guitar Tab

Learn song with the online tabulature player
++++++++++++++++++++++++++++++
| The Hollies- After The Fox |
++++++++++++++++++++++++++++++


The soundtrack of a Steve Sellers 
movie... its really funny!

"All little crooks wind up in jail..."

Tuning: EADG


Intro
1.
G|-----------------------------------------------------------|
D|-----------------------------------------------------------|
A|-4~---4-------4~---4----------4~---4-------4~---4----------|
E|--------4~-----------4~-4~-----------4~-----------4~--4~---|

Verse
"Who is the fox?"
2.
G|--------2~------------------------2~------------2~-----|
D|------2-------3~----------------2------2------2------2-|
A|-0~----------------3-------0~------------0~------------|
E|---------------------1~--------------------------------|

"Who is me?"
3.
G|--------2~--------2--2-------|
D|------2------2---------------|
A|-0~------------0~------0-2-4-|
E|-----------------------------|

Pre-Chorus
"You'll bring your poor, poor mother grief..."
4.
G|--------7-7-----------|
D|----------------------|
A|-5--5-5-----5-5-5---2-|
E|------------------5---|

Chorus
"After the fox..."
5.
G|--------6~--------------------------------------5~---|
D|------6--------------4~-----------4~----------5------|
A|-4~--------4-------4------------4--------3~--------3-|
E|--------------2~--------2--2~---------2--------------|

"So after the fox..."
6.
G|--------6~-------------------------------------------|
D|------6--------------4~-----------4~------------4~---|
A|-4~--------4-------4------------4-------------4------|
E|--------------2~--------2--2~---------2--2~--------2-|

Outro
7.
G|-----------------------------------------------------------|
D|-----------------------------------------------------------|
A|-4~---4-------4~---4----------4~---4-------4~---4----------|
E|--------4~-----------4~-4~-----------4~-----------4~--4~---|

Verse
"Where is the gold?"
8.
G|--------2~------------------------2~------------2~-----|
D|------2-------3~----------------2------2------2------2-|
A|-0~----------------3-------0~------------0~------------|
E|---------------------1~--------------------------------|

"You must tell..."
9.
G|--------2~--------2--2-------|
D|------2------2---------------|
A|-0~------------0~------0-2-4-|
E|-----------------------------|

Pre-Chorus
"You'll make your poor, poor sister cry..."
10..
G|--------7-7-----------|
D|----------------------|
A|-5--5-5-----5-5-5---2-|
E|------------------5---|

Chorus
"After the fox..."
11.
G|--------6~--------------------------------------5~---|
D|------6--------------4~-----------4~----------5------|
A|-4~--------4-------4------------4--------3~--------3-|
E|--------------2~--------2--2~---------2--------------|

"So after the fox..."
12.
G|--------6~-------------------------------------------|
D|------6--------------4~-----------4~------------4~---|
A|-4~--------4-------4------------4-------------4------|
E|--------------2~--------2--2~---------2--2~--------2-|

Outro
13.
G|-----------------------------------------------------------|
D|-----------------------------------------------------------|
A|-4~---4-------4~---4----------4~---4-------4~---4----------|
E|--------4~-----------4~-4~-----------4~-----------4~--4~---|

Verse
"Why do you steal?"
14.
G|--------2~------------------------2~------------2~-----|
D|------2-------3~----------------2------2------2------2-|
A|-0~----------------3-------0~------------0~------------|
E|---------------------1~--------------------------------|

"You'll be caught..."
15.
G|--------2~--------2--2-------|
D|------2------2---------------|
A|-0~------------0~------0-2-4-|
E|-----------------------------|

Pre-Chorus
"All little crooks wind up in jail..."
16.
G|--------7-7-----------|
D|----------------------|
A|-5--5-5-----5-5-5---2-|
E|------------------5---|

Chorus
"After the fox..."
17.
G|--------6~--------------------------------------5~---|
D|------6--------------4~-----------4~----------5------|
A|-4~--------4-------4------------4--------3~--------3-|
E|--------------2~--------2--2~---------2--------------|

"So after the fox..."
18.
G|--------6~-------------------------------------------|
D|------6--------------4~-----------4~------------4~---|
A|-4~--------4-------4------------4-------------4------|
E|--------------2~--------2--2~---------2--2~--------2-|

"After the fox..."
19.
G|-------------------|
D|-------------------|
A|-------------------|
E|-2~----------------|

Outro
20.
G|-----------------------------------------------------------|
D|-----------------------------------------------------------|
A|-4~---4-------4~---4----------4~---4-------4~---4----------|
E|--------4~-----------4~-4~-----------4~-----------4~--4~---|

21.
G|-------------------|
D|-------------------|
A|-4~----------------|
E|-------------------|


Lyrics:


Who is the fox?    I am the fox
Who are you?       I am me
Who is me?         Me is a thief
You'll bring your poor, poor mother grief

So after the fox, after the fox
Off to the hunt with chains and locks
So after the fox, after the fox
Someone is always chasing after the fox

Where is the gold?    Its on the truck
Where's the truck?    I wont tell
You must tell         Then I will lie
You'll make your poor, poor sister cry

Why do you steal?     So I'll be rich
Why not work?         Work is hard
You'll be caught      I never fail
All little crooks wind up in jail  Not me not me



+++++++++++++++++++++++++++++++++
| RaiLeff                       |
| Underground__Dora@Hotmail.Com |
+++++++++++++++++++++++++++++++++