Hollies - I Cant Let Go Text Guitar Tab

Learn song with the online tabulature player
I Cant Let Go
Written by Chip Taylor and Al Gorgonie
Hollies cover version from the original by Soul
Singer Evie Sands. Released Feb 1966 reaching number 2 in UK
Last single to feature Hollies original Bassist Eric Haydock
Tabbed by bass50611.  Any comments: bass254@btinternet.com
Great song to play along to have fun

Intro:        (Play this x6)
G--------------|
D--------------|
A--------------|
E---33333333---|

Verse:
G--------------754-----------------------------------------------|
D---5-5-5-5-4-4---7------------2---------------------------------|
A--------------------3-3-3-2-3---5-5-5-320---5-5-5-5---3-3-3-3---|
E----------------------------------------------------------------|

G----------------754----|
D-------------------7---|
A---5-5-5-5---5-5-------|
E-----------------------|

Chorus:
G------------------------------------------------------------------|
D------------------------------------------------------------------|
A---3-3-3-3-3-3-3-3---1-1-1-1-1-1-1-1---0-0---000---5-5--5-3-2-0---|
E------------------------------------------------------------------|

G--------------------|
D--5-5-5-5-5-5-5-5---|
A--------------------|
E--------------------|

Repeat Verse & Chorus:

Repeat Intro: (Play x8)

Solo:                            (Play This x2)
G---------------------------------------|
D---------------------------------------|
A---3-3-3-3-3-3-3-3---5-5-5-5-5-5-5-5---|
E---------------------------------------|

Repeat Chorus:

Final Chorus:
G------------------------------------------------------------------|
D------------------------------------------------------------------|
A---3-3-3-3-3-3-3-3---1-1-1-1-1-1-1-1---0-0---000---5-5--5-3-2-0---|
E------------------------------------------------------------------|

Outro:            (Repeat To Fade
G---------------------|
D---5-5--5------------|
A-------5-6-5-5-5-5---|
E---------------------|