Hollies - Im Alive Text Guitar Tab

Learn the song with the online tablature player
Intro
(play this x2)
-------------34-------------3-4---|
---------3-3------------3-3-------|
--3-33-3---------3-33-3-----------|
----------------------------------|

Verse
--------------------------------------------------------------|
---------3-3----------3-5-5-----------3-3----------3-5-333-5--|
--3-33-3----3---321-1------5---3-33-3----3---321-1------------|
--------------------------------------------------------------|

Chorus 1
---------------------------------------------------------------------|
-----------------2-22-2---3-33-3---5-55-5---7-77-7---5-55-5---7-77-7-|
-3-3-3---5-55-5------------------------------------------------------|
----3----------------------------------------------------------------|

-----------------------------2-------------------------|
---88888888-8888---8-7-5---3----5---8-7-5---3333---5---|
-------------------------------------------------------|
-------------------------------------------------------|

Repeat Verse and Chorus:

Solo
Repeat Verse:

Chorus 2
---------------------------------------------------------------------|
-----------------2-22-2---3-33-3---5-55-5---7-77-7---5-55-5---7-77-7-|
-3-3-3---5-5-55------------------------------------------------------|
----3----------------------------------------------------------------|

-----------------------------2---------------------------------|
---88888888-8888---8-7-5---3----5---8-7-5-88888888-555555555---|
---------------------------------------------------------------|
---------------------------------------------------------------|

Outro
---------------------------------------|
---88888888-55555555---8-8-8-8-8---5---|
---------------------------------------|
---------------------------------------|