Hollies - Sorry Suzanne Text Guitar Tab

Learn song with the online tabulature player
Sorry Suzanne
Song writers: Geoff Stephens & Tony Macauley.
Released in March 1969 Reached number 3 in UK and
Number 1 in Switzerland
Original bassist: Bernie Calvert
Tabbed by bass50611. Any comments e-mail bass254@btinternet.com
A very nice bass line hope you enjoy playing it.

Intro:
G-----------------------------------|
D----------2-22---------------------|
A---3-33----------------------0-2---|
E----------------1-11---3-33-3------|

Chorus Part 1:
G--------------------------------------------------------------|
D------5----------------------0-2---3-3---3-3-3---5-5-5-3-2----|
A---3-3-3---7-7-7-----7----3-3---------3-3---3-------5-----5---|
E--------------7---5-5-5---------------------------------------|

Chorus Part 2:
G------------------------------------------------------------------------|
D----5----------------------0-2---3-3---3-3-3---5-5---5-5-5--------------|
A-3-3-3---7-7-7-----7----3-3---------3-3---3-------5-5---5---3-33---5-55-|
E------------7---5-5-5---------------------------------------------------|

Verse 1:
G--------12-----------11-----------10----------9---------------------------|
D------12--12-------11--11-------10--10-------9-9---7-77--------5-55-------|
A-10------------9------------8------------7----------------5-55-------5-55-|
E--------------------------------------------------------------------------|

Verse 2:
G--------12-----------11-----------10----------9---------------------------|
D------12--12-------11--11-------10--10-------9-9---7-77-------------------|
A-10------------9------------8------------7----------------5-55---3-2-0-00-|
E--------------------------------------------------------------------------|

G-----------------------------|
D-------5-5---3-3---2---------|
A-5-55------------------0-1-2-|
E--------------------0-2------|

Repeat Chorus 1

Solo: Use Chorus 2 Tab

Repeat Verse 2:

Repeat Chorus 1 & 2 (End of Chorus 2 Drop the C & D)

Outro:                                                (Repeat To Fade)
G-------------------------------------------------------|
D---------2-22--------------3-33---3-33---5-55---5-55---|
A---3-33--------------3-33------------------------------|
E---------------5-55------------------------------------|