Hollies - Stop Stop Stop Text Guitar Tab

Learn song with the online tabulature player
Stop, Stop, Stop
Released in 1966 reaching number 2 in UK and number 7 USA
Original bassist: Bernie Calvert. Tabbed by bass50611
Any comments e-mail bass254@btinternet.com
Very easy to play

Intro:
G---------|-----------------------------------------------------|
D---------|-----------------------------------------------------|
A---10/---|---5----5----5----5----3----5----5----5----5-----3---|
E---------|-----5----5----5------5-------5----5----5-------5----|

Verse 1:                                       (Play this x2)
G-----------------------------------------------------|
D-----------------------------------------------------|
A---5----5----5----5----3----5----5----5----5-----3---|
E-----5----5----5------5-------5----5----5-------5----|

Solo Between Verse 1 & 2:
G---------------------------|
D---------------------------|
A---5----5----5----5----3---|
E-----5----5----5------5----|

Verse 2:
G-----------------------------------------------------|
D-----------------------------------------------------|
A---5----5----5----5----3----5----5----5----5-----3---|
E-----5----5----5------5-------5----5----5-------5----|

G----------------------------------------------------|
D----------------------------------------------2-3---|
A---5----5----5----5----3----5----5----5----5--------|
E-----5----5----5------5-------5----5----5-----------|

Chorus:
G--------------------------------------------------------------|
D---5-----5-------7------7---7-6-5------5------7-----7---5-3---|
A------5------5------7--------------5------5------7------------|
E--------------------------------------------------------------|

For Banjo Solo ~ Use Verse Without The C Turn Round:

Repeat Chorus:

Repeat Verse 2 Bassline For Verse 3:

Repeat Chorus:

For Outro ~ Repeat Verse Without The C Turn Round (To Fade)