Hollies - Yes I Will Text Guitar Tab

Learn song with the online tabulature player
Yes I Will
Early single by The Hollies released in 1965
Reaching number 9 in UK charts
Original Bassist: Eric Haydock
Tabbed by bass50611. This is a lovely song to play along to
It's hard to hear original bassline but this fits the song nicely
Note the little bass chord at the end
Any comments email me at bass254@btinternet.com
Enjoy!

Intro:
G----------------------------------------|
D----------------------------------------|
A---7-77-----7-77-----7-77-----7-77------|
E--------7-9------7-9------7-9-----7-9---|

Verse 1:
G-------------------------------------------------------------------------|
D---------7-77---------------45-7-7---7-7-7---9-9---9-9--9---------6-66---|
A---7-77-------7-77-----7-77-------7-----7-------9-----9-----4-44---------|
E-------------------7-9---------------------------------------------------|

G--------------------------------------------|
D---7-7-7-----6-9------7-77------------------|
A------7---7-7---9-99-------7-77-------------|
E--------------------------------5-5---7-7---|

Verse 2:
G-------------------------------------------------------------------------|
D---------7-77---------------45-7-7---7-7-7---9-9---9-9--9---------6-66---|
A---7-77-------7-77-----7-77-------7-----7-------9-----9-----4-44---------|
E-------------------7-9---------------------------------------------------|

G-----------------------------------------|
D---7-7-7-----6-9------7-77---------------|
A------7---7-7---9-99-------7-77---7-77---|
E-----------------------------------------|

Bridge:
G----------------------------------------------------------------9---|
D-------------------------------------------------------------7-7----|
A---7-7-7-7-7-7-7-7-7---7-7-7-7---5-5-5-5---7-7-7-7---5-5-5-5--------|
E--------------------------------------------------------------------|

G------9-------------------------------------------------------------|
D---7-7---9-9-9---99-77-66-44----------------------------------------|
A------------9---------------7-7-7-7---5-5-5-5---7-7-7-7---5-5-5-5---|
E--------------------------------------------------------------------|

G------9------------------------------|
D---7-7-7---------9-9-9---------------|
A----------9-9-9-----9----------------|
E-------------9-----------5-5---7-7---|

For Verse 3 ~ Repeat Verse 1:

For Solo & Outro:
G-------------------------------------------------------------------------|
D---------7-77---------------45-7-7---7-7-7---9-9---9-9--9---------6-66---|
A---7-77-------7-77-----7-77-------7-----7-------9-----9-----4-44---------|
E-------------------7-9---------------------------------------------------|

G-------------------------------------------------------------------------|
D-7-7-7-----6-9------7-77-------------------------------------------------|
A----7---7-7---9-99-------77-44------77-44------77-44------77-44--------7-|
E------------------------------55-77------55-77------55-77------55-77---0-|