Holly Brook - Heavy Text Guitar Tab

Learn song with the online tabulature player
Heavy
By Holly Brook
Transcribed by Dave Javier


Intro: (Piano)

           G#
E|-----------------------|
B|-----------------------|
G|-----12-----10—-8------|
D|----8—--8---------8----| 
A|--11-----11------------|
E|-----------------------|


Verse 1:
G#
Now I’ve come to cry 
				 Bb
Shed your skin to rest my naked eye 
          Fm
And criticize 
G#
All that I implore 
			      Bb
Seems to be one foot outside that door 
          Fm         Gm
Coming between me and waking 

Refrain 1:
Cm             G#     Bb
Underneath the corset of your mystery 
Cm		   G#        Bb 			
Piece by piece undress you from your history
Cm                              G#         C#    Fm – Gm – G#
I'm sleeping with seclusion in sweet disarray 

Chorus:
              Cm    G#
You can go heavy on me 
    Eb         Fm         Cm    G#    Eb  Fm
And I will not weigh you down, down, down 
             Cm        G#     Eb
You can be steady and clean 
       Fm
I can take it 
   Cm     G#
Heavy on me 
       Eb       Fm
And I will not weigh you down 

           G#
E|------------------------|
B|------------------------|
G|---7h8-7----------------|
D|---------8--------------|
A|-----------8-6---6-5----|
E|---------------------6--|

Verse 2: (Same as Verse 1)
Born unto this pride 
Silence is something you can't hide* (See Below) 
You can't deny us** (See Below) 
Nothing has been said 
Yet so many words have filled my head 
Now they completely surround me 

Refrain 2: (Same as Refrain 2)
Tie the lines of honest conductivity 
Caught between the center of our gravity 
I don't have that much time to burn anymore

Instrumental:
Cm – G# - Eb – Fm (3x)
G# - Bb

Refrain 3:
Cm             G#     Bb
Underneath the corset of your mystery 
Cm		   G#        Bb 			
Piece by piece undress you from your history
Cm                              G#         C#    Fm – Gm – G#
I'm sleeping with seclusion in sweet disarray 
Fm – Gm – C# - Eb
I......

---------------------------------------

Verse 1 Chords: (Piano)

           G#
E|-----------------------|
B|-----------------------|
G|-----12-----10—-8------|
D|----8—--8---------8----| 
A|--11-----11------------|
E|-----------------------|
           Bb
E|-----------------------|
B|-----------------------|
G|-----12-----10—-8------|
D|----8—--8---------8----| 
A|--6------6-------------|
E|-----------------------|

           Fm
E|-----------------------|
B|-----------------------|
G|-----12-----10—-8------|
D|----8—--8---------8----| 
A|--8-------8------------|
E|-----------------------|

Verse 2: Guitar parts

Silence is something you can't hide* 
*
E|----------------------|
B|----------------------|
G|---------8/7----------|
D|----8-10-----8--------|
A|---------------8/6----|
E|----------------------|

You can't deny us**
**
E|-------------|
B|-------------|
G|-------8/7---|
D|---8h10------|
A|-------------|
E|-------------|

------------------------------------------------------

Comments / Suggestion?