Honor Society - My Own Way Text Guitar Tab

Learn song with the online tabulature player
My Own Way
Honor Society (ft. Esmee Denters)

I tabbed this from this video:
http://www.youtube.com/watch?v=2NFMQsJu9pc
so see it for the strumming patterns

Standard Tuning: EADGBe

Intro

e|----8------5------1----|
B|----8------6------1----|
G|----10-----7------3----|   x2
D|----10-----7------3----|
A|----8------5------1----|
E|-----------------------|
      Fsus2  Dm   A#/Bbsus2
Verse

e|----1------5------6----|
B|----1------6------6----|
G|----2------7------7----|  x4
D|----3------7------8----|
A|----3------5------8----|
E|----1-------------6----|
      F      Dm   A#/Bb

Chorus

e|----1------5------5----| |----1------5------5------6----|
B|----1------5------6----| |----1------5------6------6----|
G|----2------5------7----| |----2------5------7------7----|  x2
D|----3------7------7----| |----3------7------7------8----|
A|----3------7------5----| |----3------7------5------8----|
E|----1------5-----------| |----1------5-------------6----|
      F      Am     Dm          F      Am     Dm   A#/Bb

after chorus

e|----1------5------5------6----|
B|----1------5------6------6----|
G|----2------5------7------7----|
D|----3------7------7------8----|
A|----3------7------5------8----|
E|----1------5------5------6----|
      F      Am     Dm    A#/Bb

repeat verse
repeat chorus

Bridge
e|----5-----6-----1------5-----3| |----5----6-----1-----0----|
B|----6-----6-----1------5-----5| |----6----6-----1-----1----|
G|----7-----7-----2------5-----5| |----7----7-----2-----0----|
D|----7-----8-----3------7-----5| |----7----8-----3-----2----|
A|----5-----8-----3------7-----3| |----5----8-----3-----3----|
E|----------6-----1------5------| |---------6-----1----------|
      Dm  A#/Bb   F      Am    C      Dm  A#/Bb   F     C

repeat chorus

do the after chorus twice

outro = repeat intro