Honor Society - See U In The Dark Text Guitar Tab

Learn song with the online tabulature player
VERSES                          
E|----------------------|         
B|----------------------|       
G|-10-------------------|        
D|-10-x8--11-----10-----| x2   
A|-8------11-x4--10-x4--|        
E|--------9------8------|     
strum
E|----------------------|     |---------------|
B|----------------------|     |---------------|
G|-10-------------------|     |---------------| strum till chours starts
D|-10-x8--11-----10-----| x2  |------13-------| 
A|-8------11-x4--10-x4--|     |------13-------|
E|--------9------8------|     |------11-------|

CHORUS:
E|---------------------------------|
B|---------------------------------|
B|--------6------------6-----6-----|
D|--6-----6-x8--3------6-x5--6-x5--| x2
A|--6-x8--4-----3-x8---4-----4-----|
E|--4-----------1------------------|

 POST CHORUS:   (this was in another tab, but sounded right to me)
E|-------------------------------------------------------------------------|
B|-------------------------------------------------------------------------|
G|--77--10 10--99-----------77--10 10--99------77--10 10--99---------------|
D|-----------------10 10-------------------77-----------------10 10--------|
A|-------------------------------------------------------------------------|
E|-------------------------------------------------------------------------|

E|-----------------------------------------------------------------|
B|-------------------------------------------88--66----------------|
G|--77--10 10--99------77--10 10--99-----------------9-------------|
D|-----------------77-----------------10 10-------------10-12------|
A|-----------------------------------------------------------------|
E|-----------------------------------------------------------------|

VERSES                          
E|----------------------|         
B|----------------------|       
G|-10-------------------|        
D|-10-x8--11-----10-----| x2   
A|-8------11-x4--10-x4--|        
E|--------9------8------|     

strum
E|----------------------|     |---------------|
B|----------------------|     |---------------|
G|-10-------------------|     |---------------| strum till chours starts
D|-10-x8--11-----10-----| x2  |------13-------| 
A|-8------11-x4--10-x4--|     |------13-------|
E|--------9------8------|     |------11-------|

CHORUS:
E|---------------------------------|
B|---------------------------------|
B|--------6------------6-----6-----|
D|--6-----6-x8--3------6-x5--6-x5--| x2
A|--6-x8--4-----3-x8---4-----4-----|
E|--4-----------1------------------|


REPEAT POST CHORUS


strum                   strum (not sure of this part)  (strum till solo)
E|------------------|     |-------------------------|    |----------|
B|------------------|     |-------------------------|    |----------|
G|-10---------------|     |-------------------------|    |----------|
D|-10---11---10-----| x2  |------8-----10-----12----|    |----13----|
A|-8----11---10-----|     |------8-----10-----12----|    |----13----|
E|-------9---8------|     |------6-----8------10----|    |----11----|

SOLO: dont know it, but u can just play the chours

(when michael sings)
E|---------------------------------|
B|---------------------------------|
B|------6--------6------6----------|
D|--6---6---33---6-x5---6-x5-------| x2
A|--6---4---33---4------4----------|
E|--4-------11---------------------|

CHORUS:
E|---------------------------------|
B|---------------------------------|
B|--------8------------8-----8-----|
D|--8-----8-x8--4------8-x5--8-x5--|
A|--8-x8--6-----4-x8---6-----6-----|
E|--6-----------2------------------|

E|------------------------------|
B|------------------------------|
B|--------8------------8--------|
D|--8-----8-x8--4------8-x5-----|
A|--8-x8--6-----4-x8---6--------|
E|--6-----------2---------------|